Song name
# A B C D E F G H I J K L M N O P Q R S T U V W X Y Z

Washya - The Night That Never Ends tab

-----------------------------------------------------------------------------
                   The Night That Never Ends - Washya
-----------------------------------------------------------------------------

Tuning: Drop C (FADCGC)
Intro
D|-------------------11------------------------------------------------|
A|----------------------8----------------------------------------------|
F|--------------10/9---------------------------------------------------|
C|--------12/11----------------8------8-------------6/5----------------|
G|-00-9/8-----------------0000-6-0000-6-0000----6/5-----7/6-0000100001-|
C|-00---------------------0000---0000---0000-00-------------0000100001-|
pm ..                     ....   ....   .... ..             .... .... 

Verses
D|---------------------------------------------|
A|---------------------------------------------|
F|-55555-x-x-3-x-233/77h10p9p7---------444-----|
C|-33333-x-x-1-x-211/55------5---------222-----|
G|-33333-x-x-1-x-011/55------5-3-666-2-222-0-1-|
C|-33333-x-x-1-x-011/55------5-3-666-2-222-0-1-|
pm  ...           .   .           .  .  .. 

Chorus
D|------------------------------------------------------|
A|------------------------------------------------------|
F|-12-12-12/14-11--------7-7-7/9-5----------------------|
C|-10-10-10/12-9---------5-5-5/7-3----------------------|
G|-10-10-10/12-9--999999-5-5-5/7-3-333333-1-11111-0-1-3-|
C|-10-10-10/12-9--999999-5-5-5/7-3-333333-1-11111-0-1-3-|
pm                ......           ...... . ..... . . 
Tap to rate this tab
 
# A B C D E F G H I J K L M N O P Q R S T U V W X Y Z