Song name
# A B C D E F G H I J K L M N O P Q R S T U V W X Y Z

Washya - Railrider tab

------------------------------------------------------------------------------
                             Railrider - grinspoon
------------------------------------------------------------------------------

Tuning: Drop D (DADgbe)
Intro
e|------------------------------------------|
b|------------------------------------------|
g|------------------------------------------|
D|------------------------------------------|
A|---3-5-----3---3-5--------3-3-3-3-3-3-3-0-|
D|-0-----0-3---0-----0-3-2----------------0-|

Verses
e|-----------------------------------------------|
b|-----------------------------------------------|
g|-----------------------------------------------|
D|-------------------------------------------2~--|
A|-0-00-3--0-00-3--0-2-3-0-3-2-0-00-3-0-00-3-----|
D|-0-00-3--0-00-3--0-2-3-0-3-2-0-00-3-0-00-3-----|
pm . ..    . ..                . ..   . .. 

Chorus
e|-----------------------------------------------|
b|-----------------------------------------------|
g|-----------------------------------------------|
D|-----------------------------------------------|
A|-0-3-2-3-6-5-3-0-3-2-3-6-6-6--0-3-2-3-6-5-3-0--|
D|-0-3-2-3-6-5-3-0-3-2-3-6-6-6--0-3-2-3-6-5-3-0--|

Solo
e|-------------------------------|
b|-------------------------------|
g|-------------------------------|
D|-------------------------------|
A|---4-4---4---2----4-4---4---2--|
D|-2-----2---2----2-----2---2----|

Interlude
e|----------------------------|
b|----------------------------|
g|----------------------------|
D|----------------------------|
A|-5-5555-5-2-2222-0-0000-2~--|
D|-5-5555-5-2-2222-0-0000-2~--|x2

then
e|---------------------------------------|
b|---------------------------------------|
g|---------------------------------------|
D|---------------------------------------|
A|---3-5-----3---3-5-------3-3-3-3-3-3-0-|
D|-0-----0-3---0-----0-3-2-------------0-|
Tap to rate this tab
# A B C D E F G H I J K L M N O P Q R S T U V W X Y Z