Song name
# A B C D E F G H I J K L M N O P Q R S T U V W X Y Z

Washya - Strike Me Down tab

-----------------------------------------------------------------------------
                                Strike Me Down - Washya
-----------------------------------------------------------------------------

Tuning: Standard (ebgDAE)
Intro
e|-------------------------|
b|-------------------------|
g|-14-14-14-14--12-12--7-9-|
D|-14-14-14-14--12-12--7-9-|
A|-12-12-12-12--10-10--5-7-|
E|-------------------------|x 2

Intro 2
e|---3-------3-------3---3---|
b|-----3-------0-------2---3-|
g|-------2-------0-----------|
D|---------------------------|
A|---------------------------|
E|-0-------0-------0---------|
pm .       .       . 

Verses (throughout entire verse)
e|-------------------------------------------------------2h3p2-------|
b|-----------------------------------------------1-----1-------3---3-|
g|-----------------------------2-----0-----2---2-----2-----------2---|
D|-----2-----2-----0-----0---2-----2-----3---2-----0-----------------|
A|---2-----3-----2-----2---0-----3-----0-----------------------------|
E|-0-----0-----2-----3-----------------------------------------------|

Chorus
e|-----------------------------------------------------|
b|-----------------------------------------------------|
g|-----------------------------------------------------|
D|-----5----------------------------9------------------|
A|-7-----7-5-------------2--8p7---7---9-7------------7-|
E|---7-------8-7-5-7-5-3-0------9---------10-9-7-9-7-5-|

Guitar Solo
e|-----------------------------------------13~--|
b|--------------------------------12-10-12------|
g|-----------3-5-3-5/7---7-9-7-10---------------|
D|-----3---5-----------9------------------------|
A|-3-5---5--------------------------------------|
E|----------------------------------------------|
pm . . . . . . . . . . .   

e|-13p10----10h13p10-13p10----10h13p10----10h13p10----|
b|-------12----------------12----------12-------------|
g|----------------------------------------------------|
D|----------------------------------------------------|
A|----------------------------------------------------|
E|----------------------------------------------------|

e|-10h13p10h13p10h13p10h13p10h15p10h15p10h15-15b-15bp12--|
b|-------------------------------------------------------|
g|-------------------------------------------------------|
D|-------------------------------------------------------|
A|-------------------------------------------------------|
E|-------------------------------------------------------|

e|-----12-----12-----12-----12-15b-12-14-17b-14-----13~-|
b|-15b----15b----15b----15b---------------------16b-----|
g|------------------------------------------------------|
D|------------------------------------------------------|
A|------------------------------------------------------|
E|------------------------------------------------------|

Tap to rate this tab
# A B C D E F G H I J K L M N O P Q R S T U V W X Y Z