Song name
# A B C D E F G H I J K L M N O P Q R S T U V W X Y Z

Washya - Hell Has No Fury tab

-----------------------------------------------------------------------------
			      Hell has no fury - Band Name
-----------------------------------------------------------------------------
Tabbed by:
Email:

Tuning:
Lead intro play fast
e|----------12h15---------------------------12h15----------------13~--|
B|-12h14h15----------------12h15---12h14h15----------------12h15------|
G|----------------12h14h15------------------------12h14h16------------|
D|--------------------------------------------------------------------|
A|--------------------------------------------------------------------|
E|--------------------------------------------------------------------|

Verses
e|-------------------------------------------------------------------------|
B|-------------------------------------------------------------------------|
G|-------------------------------------------------------------------------|
D|-------------------------------------3---------------------------5-------|
A|-2-222--2-222--2-222--2-222--2-222-2-1-2-222-2-222-2-222-2-222-2-3-------|
E|-0-000--0-000--0-000--0-000--0-000-0---0-000-0-000-0-000-0-000-0---5-3-0-|
pm . ...  . ...  . ...  . ...  . ...     . ... . ... . ... . ...     . . . 

Chorus
e|------------------------------|
b|------------------------------|
g|------------------------------|
D|--5-xx-5/7------------8-2-3---|
A|--3-xx-3/5--5-5-3-3-3-6-0-1-3-|
E|------------3-3-1-1-1-------1-|
Tap to rate this tab
 
# A B C D E F G H I J K L M N O P Q R S T U V W X Y Z