Song name
# A B C D E F G H I J K L M N O P Q R S T U V W X Y Z

Washya - Erosion tab

-----------------------------------------------------------------------------
			     Erosion - Washya
-----------------------------------------------------------------------------
Tabbed by:
Email:

Tuning: Standard (ebgDAE) 
Intro pt 1          Intro pt 2
e|---------------|---------------------------------------|
B|---------------|---------------------------------------|
G|---------------|---------------------------3-3-3-------|
D|-7777-9999-2-3-|---------3-3---------------------6-5-3-|
A|-5555-7777-0-1-|-2-0-3-5-----5-----2-0-3-5-------------|
E|---------------|-0-------------3-2-0-------------------|x2


Verses
e|-----------------------------------------------------|
B|-----------------------------------------------------|
G|-----------------------------------------------------|
D|-7---------7--9---------9--5---------5---------------|
A|-5-5-5-5-5-5--7-7-7-7-7-7--3-3-3-3-3-3--3-------3--5-|
E|----------------------------------------1-1-1-1-1--3-|
pm   . . . .      . . . .      . . . .      . . .      

Interlude
e|-----------------------------------------------------------------------|
b|-----------------------------------------------------------------------|
g|-------------------------------7~--------------------------------------|
D|---6-4---4-4---------6-4---4-4------6-4---4-4--------------------------|
A|-------6-----6-5-3-------6--------------6-----6-5-3-------1-3-3-1---2--|
E|-0-----------------0--------------0---------------1-0-1-3---------3-0--|x2
pm                                                      . . . . . . . . 

Chorus
e|--------------------------------------------------------------|
b|--------------------------------------------------------------|
g|--------------------------------------------------------------|
D|-7-----------------------2--------5-------------2-------------|
A|-5-7-5-7-------------2-3---3-2--3-3-5-------2-3---------------|
E|---5-3-5-0-0-0-0-0-0---------0--1---3-0-2-3-------0-0-0-1-2-3-|
pm         . . . . . . . . . .          . . . . .   . . . . . .
Tap to rate this tab
# A B C D E F G H I J K L M N O P Q R S T U V W X Y Z