Song name
# A B C D E F G H I J K L M N O P Q R S T U V W X Y Z

Washya - Splender tab

-----------------------------------------------------------------------------
                            Splender - Washya
-----------------------------------------------------------------------------

Tuning: Drop D (DADgbe) 
Intro
e|-----------------------------------|
b|-----------------------------------|
g|-----------------------------------|
D|-7-77-----5-55-----9-99------------|
A|-5-55-5-5-3-33-3-3-7-77-7-7-2-22-4-|
D|------5-5------3-3------7-7-2-22-4-|

Verses
e|---------------------------------------------------------------|
b|---------------------------------------------------------------|
g|---------------------------------------------------------------|
D|----------------------------------------------------------3----|
A|-2-22222222-5/6-6-5-3---3-3-3333333-7/8-8-7-5---55-555555-1-00-|
D|-2-22222222-5/6-------5-3-3-3333333-7/8-------7-55-555555---00-|
pm . ........     . . . . . . .......     . . . . .. ......   .. 

Chorus
e|------------------------------------------------------------------|
b|------------------------------------------------------------------|
g|------------------------------------------------------------------|
D|-4-4-4-7-7-7-------------3---------------------------3-3-5--------|
A|-2-2-2-5-5-5-3-3-3-5-5-5---6-5-3-5-5-8-8-6-1-3-------1-1-3-2-2-5--|
D|-------------3-3-3-5-5-5---------5-5-8-8-6-1-3-1-2-3-------2-2-5--|
Tap to rate this tab
# A B C D E F G H I J K L M N O P Q R S T U V W X Y Z