Song name
# A B C D E F G H I J K L M N O P Q R S T U V W X Y Z

Washya - Manacle tab

-----------------------------------------------------------------------------
                         Manacle - Washya
-----------------------------------------------------------------------------
Tuning: Standard (ebgDAE)

Intro
e|---------------------------------------------------------------|
b|---------------------------------------------------------------|
g|---------------------------------------------------------------|
D|---------2-------3-----2-------3------2-------3-----2----------|
A|-----0-1---1-0-1---0-1---1-0-1-1--0-1---1-0-1---0-1---1--------|
E|-000----------------------------------------------------3-2-1--|
pm ...                                                    . . . 

Verses
e|---------------------------------------------------|
b|---------------------------------------------------|
g|---------------------------------------------------|
D|-------------------------------0-------------------|
A|---------------1---------0-1-2-----------0-1-2-----|
E|-0000-00-0-1-3---0000-00---------0000-00-------3-1-|
pm .... ..         .... ..         .... .. 

Chorus
e|----------------------------------------------|
b|----------------------------------------------|
g|----------------------------------------------|
D|------------------4-----------------5---------|
A|-3-33-3-6-4-6-4-6---7-6-4-7-5-7-5-7---7-6-5-8-|
E|-1-11-1-4---------------2-5---------------3-6-|
pm          . . . .   . .     . . . .   . .    

Guitar Solo
e|-//5~-5h8t20p8p5h8t21p8p5h8t20--7h10t21p10p7t22p10p7-----------------|
b|-----------------------------------------------------4h7t15p7p4t15p4-|
g|---------------------------------------------------------------------|
D|---------------------------------------------------------------------|
A|---------------------------------------------------------------------|
E|---------------------------------------------------------------------|

e|--------------------------------|
b|-4h7t15p7p4-4-7-6-4-6-4-3---0-2-|
g|--------------------------2-----|
D|--------------------------------|
A|--------------------------------|
E|--------------------------------|
Tap to rate this tab
# A B C D E F G H I J K L M N O P Q R S T U V W X Y Z