Song name
# A B C D E F G H I J K L M N O P Q R S T U V W X Y Z

Washya - Thieves tab

-----------------------------------------------------------------------------
                        Thieves - Washya
-----------------------------------------------------------------------------

Tuning: Drop D (DADGBE)
Intro
e|---------------------------------------------------|
b|---------------------------------------------------|
g|---------------------------------------------------|
D|-------------0---------------------2p0-------------|
A|---3p2p0---2---2p0h2p0-----3p2p0h2-----2p0---2-0-2-|
D|-0-------3--------------00-----------------3-----2-|

Verses Play 3 times then play     ---->
e|-------------------------------------|-----------------------|
b|-------------------------------------|-----------------------|
g|-------------------------------------|---------0-------------|
D|-7-7-5-5-7-7-----5-------------------|-----0h2---3p2p0-------|
A|-5-5-3-3-5-5-5-7---7-5-3-3-1-1-3-----|-0h2-------------2p0h2-|
D|-----------------------3-3-1-1-3-----|---------------------2-|

Chorus (Play 5 times) then ---> 
e|-------------------------|-------------------------|
b|-------------------------|-------------------------|
g|-------------------------|------------5b-----------|
D|-7-7---------------------|-------------------------|
A|-5-5-3-3-5p3h8\3-3-1-1-3-|-0-55-00-55----0-11-00-1-|
D|-----3-3-5p3h8\3-3-1-1-3-|-0-55-00-55----0-11-00-1-|
pm                             ..    ..      ..    . 
Tap to rate this tab
 
# A B C D E F G H I J K L M N O P Q R S T U V W X Y Z