Song name
# A B C D E F G H I J K L M N O P Q R S T U V W X Y Z

Washya - No Hope Left tab

-----------------------------------------------------------------------------
              No Hope Left - Washya
-----------------------------------------------------------------------------
Tuning: Standard (ebgDAE)
Intro
Play X 13                                       then play
e|-0000000000-000-000000000-000-000-0000000-000-|-12-10----11-9---9-7---5~-|
b|-5555555555-444-777777777-555-888-6666666-777-|-------10------9-----7----|
g|----------------------------------------------|--------------------------|
D|----------------------------------------------|--------------------------|
A|----------------------------------------------|--------------------------|
E|----------------------------------------------|--------------------------|
 
Verses Play Palm Muted
e|-------------------------------------------------------------|
b|-------------------------------------------------------------|
g|-------------------------------------------------------------|
D|-5-5-5-5-5-5-5-5-5-5-------------------------------3-3-3-3-3-|
A|-2-2-2-2-2-3-3-3-3-3-5-5-5-5-5-5-7-7-7-7-3-3-3-3-3-1-1-1-1-1-|
E|---------------------3-3-3-3-3-3-5-5-5-5-1-1-1-1-1-----------|
pm . . . . . . . . . . . . . . . . . . . . . . . . . . . . . .  

Chorus
e|-----------------------------------------------------------------------|
b|-----------------------------------------------------------------------|
g|-----------------------------------------------------------------------|
D|-5-5-5-5-5-------------------------------5-5-5-5-5-3-3-3-3-3-----------|
A|-3-3-3-3-3-3-3-3-3-3-8-8-8-8-8-5-5-5-5-5-3-3-3-3-3-1-1-1-1-1-2-2222----|
E|-----------1-1-1-1-1-6-6-6-6-6-3-3-3-3-3---------------------0-0000----|

Guitar Solo
e|-------------------------------------------------|
b|-------------------------------------------------|
g|---------------------------------10--------------|
D|---5---3---------------------8p7----8-7---7h9-9~-|
A|-3---6-----3----7---5---5-7-------------9--------|
E|---------6----5---8---7--------------------------|
Tap to rate this tab
# A B C D E F G H I J K L M N O P Q R S T U V W X Y Z