Song name
# A B C D E F G H I J K L M N O P Q R S T U V W X Y Z

Washya - Eye Gore tab

--------------------------------------------------------------------------- 
Eye gore - Washya
-----------------------------------------------------------------------------

Tuning: Standard (ebgDAE)
Intro E,     E,      C,         D,       A,      F#
e|---------------------------0---2---------------------2-|
b|---1-------1--------1--------------2-----------------2-|
g|-----2---------2-----------------3-----2-------4-----3-|
D|-------2-----2----------2------------------2-------4-4-|
A|-0---------------0----3--------------0---2-------2---4-|
E|---------0-------------------0---------------0-------2-|
pm .       .       .           .       .       .  

Verses
e|---------------------------------|
b|---------------------------------|
g|--7h8~----------3p2--------------|
D|---------5/6~-------6-5-3-2------|
A|----------------------------3/5~-|
E|-------0------0------------------|
pm       .      . 

Chorus/Main Riff/Play Fast
e|-------------------------------------------------------------|
b|-------------------------------------------------------------|
g|-------------------------------------------------------------|
D|-------------------------1---0-----------------------3-------|
A|-------------5---4---3-2---2-----2---1---0---6-5-3-----------|
E|-0-000-0-0-6---5---4-----------3---2---2---2-------5---6-5-3-|
pm           . . . . . . . . . . . . . . . . . . . . . . . . .   
Tap to rate this tab
# A B C D E F G H I J K L M N O P Q R S T U V W X Y Z