Song name
# A B C D E F G H I J K L M N O P Q R S T U V W X Y Z

Washya - Sledgehammer tab

-----------------------------------------------------------------------------
                             Sledgehammer - Washya
-----------------------------------------------------------------------------

Tuning: Drop B (BF#BEG#C#)
Intro
B|-----------------------------------------|
F#|-14141414-8888888888-55555555-111111111-|
B|--14141414-8888888888-55555555-111111111-|
E|--xxxxxxxx-xxxxxxxxxx-xxxxxxxx-xxxxxxxxx-|
G#|-12121212-1010101010-77777777-999999999-|
C#|----------------------------------------|x3

Verses
B|------------------------------------|
F#|-----------------------------------|
B|------------------------------------|
E|--555-33/555-0-1-0-xx-1-00-1-0-11/3-|
G#|-xxx-xx/xxx-0-1-0-xx-1-00-1-0-11/3-|
C#|-555-33/555-0-1-0-xx-1-00-1-0-11/3-|

Chorus
B|------------------------------------------------------------|
F#|-9-9-9-9-12-12-12-7-7-7-7-7h8p7p5--------------------------|
B|--9-9-9-9-12-12-12-7-7-7-7-7---------------------7-7-7-7-7--|
E|--7-7-7-7-10-10-10-5-5-5-5-5-------5-5-5-5-2-2-2-7-7-7-7-7--|
G#|-7-7-7-7-10-10-10-5-5-5-5-5-------5-5-5-5-2-2-2-5-5-5-5-5--|
C#|-7-7-7-7-10-10-10-5-5-5-5-5-------5-5-5-5-2-2-2------------|
Tap to rate this tab
 
# A B C D E F G H I J K L M N O P Q R S T U V W X Y Z