Song name
# A B C D E F G H I J K L M N O P Q R S T U V W X Y Z

Washya - The Time Of Your Life tab

-----------------------------------------------------------------------------
                            The Time Of Your Life - Washya
-----------------------------------------------------------------------------

Tuning: Drop C (CGCFAD)
Intro
D|--------------------------------------------|
A|--------------------------------------------|
F|--------------------------------------------|
C|--------------------------------------------|
G|--------------------------------------------|
C|-00-00-0000-00--00-00-0000-00-00-00-0000-00-|x4
pm .. .. .... ..  .. .. .... .. .. .. .... .. 

Intro 2
D|-----------------------------------|
A|-----------------------------------|
F|-----------------------------------|
C|----8----5----3---4---9\7----------|
G|-00-6-00-3-00-1---2---7\5-3333-666-|
C|-00---00---00---0---0-----3333-666-|x2
pm ..   ..   ..   .   . 

Verses
D|-------------------------------------------------|
A|-------------------------------------------------|
F|-------------------------------------------------|
C|-----------------------6p5-----------------------|
G|----10p7-8p5-------5p4-----3h5-------6h9-7p4-----|
C|-00----------00-00-------------00-00---------1-3-|
pm ..          .. ..             .. ..         . . 

Chorus
D|-------------------------------------------------------------------|
A|-------------------------------------------------------------------|
F|-------------------------------------------------------------------|
C|----4\3------------8\7-----------5\4------------------7\5----------|
G|-00-2\1-1h2-5\4-00-6\5-5h6p5-3h5-3\2-00-8\7-5h7p5-3h5-5\3-3333-555-|
C|-00-----1h2-5\4-00-----5h6p5-3h5-----00-8\7-5h7p5-3h5-----3333-555-|
pm ..             ..                   .. . . . . . . .      

Guitar Solo
D|---------------------------------------------------------------------|
A|-2b-2p0h2p0h2p0h2b~--------------------------------------------------|
F|---------------------------------------------------------------------|
C|----------------------------------------------------3-5-6-8-3-5-6-8--|
G|------------------------------------3-5-6-8-3-5-6-8------------------|
C|--------------------3-5-6-8-3-5-6-8----------------------------------|
pm                    . . . . . . . . . . . . . . . . . . . . . . . . 
D|------------------------------------------------------------------------|
A|------------------------------------------------------------------------|
F|---------------------------------3-5-6-8-3-5-6-8------------------------|
C|-----------------3-5-6-8-3-5-6-8-----------------5-7-8-10-5-7-8-10------|
G|-3-5-6-8-3-5-6-8--------------------------------------------------------|
C|------------------------------------------------------------------------|
pm . . . . . . . . . . . . .   

D|------------------------------------------------------------------------|
A|----------------------------8-10-12-8-10-12-----------------8-10-12-----|
F|----------5-7-8-10-5-7-8-10-----------------8-10-12-8-10-12-------------|
C|-5-7-8-10---------------------------------------------------------------|
G|------------------------------------------------------------------------|
C|------------------------------------------------------------------------|

D|---------10h13p10----15p10----------10-12-14----------13--|
A|-8-10-12----------12-------12----12----------13-12-15-----|
F|------------------------------13--------------------------|
C|----------------------------------------------------------|
G|----------------------------------------------------------|
C|----------------------------------------------------------|

D|-13h17p13h17p13h17p13h17p13h19p13h19p13h19p13h17t20p13t21p13-22~--|
A|------------------------------------------------------------------|
F|------------------------------------------------------------------|
C|------------------------------------------------------------------|
G|------------------------------------------------------------------|
C|------------------------------------------------------------------|
Tap to rate this tab
 
# A B C D E F G H I J K L M N O P Q R S T U V W X Y Z