Song name
# A B C D E F G H I J K L M N O P Q R S T U V W X Y Z

Washya - Reptilian tab

-------------------------------------------------------------------------------
                                 Reptilian - Washya
-------------------------------------------------------------------------------

Tuning: Standard (ebgDAE)
Intro
  (Play x3)then   --> 
e|----------------|------------------------|
b|----------------|------------------------|
g|----------------|------------------------|
D|----------------|------------------------|
A|-2-22222-2-2-22-|-----3-5-6-5-3-----22-2-|
E|-0-00000-0-0-00-|-3-5-----------5-3-00-0-|
pm . ..... . . ..                     .. . 

Verse 1
e|-------------------------------------------------------------|
b|------------------------------1-------------3----------------|
g|----------------------------2---2---------4---4--------------|
D|-----3----------4---------3-------3-----5-------5------------|
A|---1---5-3----2---4-2---1-----------1/3-----------3-5555-3-5-|
E|-0----------0---------0-----------------------------3333-1-3-|

Chorus
e|--------------------------------------|
b|--------------------------------------|
g|--------3-33--------------------------|
D|-4-44-4-3-33-5-55-5-7-77-7-3-33-3-2-5-|
A|-4-44-4-1-11-5-55-5-7-77-7-3-33-3-2-5-|
E|-2-22-2------3-33-3-5-55-5-1-11-1-0-3-|

Verse 2                            A.H.
e|-----0-------------0-0-0----------12----12----|
b|-------2-----------0-0-0-------------12-------|
g|---------3---------7-6-4-------------------12-|
D|----------------5-----------------------------|
A|---3----------2----------------0--------------|
E|-1----------0------------0-2-3----------------|
Tap to rate this tab
 
# A B C D E F G H I J K L M N O P Q R S T U V W X Y Z