Song name
# A B C D E F G H I J K L M N O P Q R S T U V W X Y Z

Washya - Path Of Destruction tab

-----------------------------------------------------------------------------
                    Path Of Destruction - Washya
-----------------------------------------------------------------------------
Very Heavy Song!

Tuning: Drop C (CGCFAD)
Intro
D|-------------------------------------------|
A|-------------------------------------------|
F|-------------------------------------------|
C|----8\7-5/7\5-3/5-8\7------------------7\6-|
G|----6\5-3/5\3-1/3-6\5----8-7-5-7-5-3-5-5\4-|
C|-00-------------------00-8-7-5-7-5-3-5-----|
pm ..                   .. 

Part 2
D|-------------------------------------------|
A|-------------------------------------------|
F|-------------------------------------------|
C|-------------------------------------------|
G|-------------------------------------------|
C|-1-00-1-0-0-0--0000000-1-00-1-0-0-0-1-00-1-|


Verses
D|-------------------------------------------------------|
A|-------------------------------------------------------|
F|-------------------------------------------------------|
C|-------7-6-5-5h6p5-3-------------------2-0-2-0---------|
G|-------7-6-5-----------------------3-2-0-------3-2-0-2-|
C|-0-1-0---------------0-1-3-0-1-0-1-------------------2-|
pm . . .               . . . . . .

Chorus (Heavy Palm Muting)
D|---------------------------------------------------------|
A|---------------------------------------------------------|
F|---------------------------------------------------------|
C|-7---------------7-7-----------------------------3-------|
G|-5-3-0-3-1-0-1-3-5-5-5-5-5-5-5-5-7-7-7-7-3-3-3-3-1-0-1-3-|
C|---3-0-3-1-0-1-3-----5-5-5-5-5-5-7-7-7-7-3-3-3-3---0-1-3-|
pm   . . . . . . .     . . . . . . . . . . . . . .   . . . 

Heavy Palm Muting For This Riff Also
D|-------------------|
A|-------------------|
F|-------------------|
C|---------------7\6-|
G|-8-7-5-7-5-3-5-5\4-|
C|-8-7-5-7-5-3-5-----|
pm . . . . . . . 
Tap to rate this tab
 
# A B C D E F G H I J K L M N O P Q R S T U V W X Y Z