Song name
# A B C D E F G H I J K L M N O P Q R S T U V W X Y Z

Washya - Justify tab

-----------------------------------------------------------------------------
			     Justify - Washya
-----------------------------------------------------------------------------
Tabbed by:
Email:

Tuning: Standard (ebgDAE)
Intro
e|-------------------------------------------------------|
B|-------------------------------------------------------|
G|-------------------------------------------------------|
D|-----7-7-----5-5-----55-----77-------------------------|
A|---------------------33-----55-----5-----8-----4-----7-|
E|-000-----000-----000----000----000-3-000-6-000-2-000-5-|
pm ...     ...     ...    ...    ...   ...   ...   ...    

Verses
e|--------------------------------------------------------------|
B|--------------------------------------------------------------|
G|-10-xxx-10-10-10-10---------------5-xxx-5-5-5-5---------------|
D|-10-xxx-10-10-10-10-7-xxx-7-7-7-7-5-xxx-5-5-5-5-3-xxx-3-3-3-3-|
A|-8--xxx-8--8--8--8--7-xxx-7-7-7-7-3-xxx-3-3-3-3-3-xxx-3-3-3-3-|
E|--------------------5-xxx-5-5-5-5---------------1-xxx-1-1-1-1-|

Chorus
e|-----------------------------------------------------------------|
b|-----------------------------------------------------------------|
g|-4-4-4-4-4-4-7-7-7-7-7-7-7---------------------------------------|
D|-4-4-4-4-4-4-7-7-7-7-7-7-7-7-7-7-7-7-7-7-8-8-8-8-5-5-5-5-5-7-7-7-|
A|-2-2-2-2-2-2-5-5-5-5-5-5-5-7-7-7-7-7-7-7-8-8-8-8-5-5-5-5-5-7-7-7-|
E|---------------------------5-5-5-5-5-5-5-6-6-6-6-3-3-3-3-3-5-5-5-|

Guitar Solo                                            (hold Bend)
e|-------------------------------------------------------------------------|
b|-------------------------------------------------------------------------|
g|------------------------------------------------------19b19b19b19b19b19b-|
D|-9p8p6h8-8h9~--12p11p9h11-11h12~-15p14p12h14-14h15-15--------------------|
A|-------------------------------------------------------------------------|
E|-------------------------------------------------------------------------|

e|---------------------------------------------------------------|
b|------------------------17h19h20p19p17h19h20p19p17h19h20-17h19-|
g|-19b19b19b19b-19h20p17~----------------------------------------|
D|---------------------------------------------------------------|
A|---------------------------------------------------------------|
E|---------------------------------------------------------------|

e|-21p20p18h21p20p18h21p20p18----------------------------|
b|----------------------------21p20p18h21p20p18h21p20p18-|
g|-------------------------------------------------------|
D|-------------------------------------------------------|
A|-------------------------------------------------------|
E|-------------------------------------------------------|

e|----------18-------------------18----------18----------------18-|
b|----18-21----21-18-------18-21----21-18-------21-20-18-20-21----|
g|-20----------------20-20----------------20----------------------|
D|----------------------------------------------------------------|
A|----------------------------------------------------------------|
E|----------------------------------------------------------------|

e|----------------18----------------18b-20b-22~~-|
b|-21-20-18-20-21----21-20-18-20-21--------------|
g|-----------------------------------------------|
D|-----------------------------------------------|
A|-----------------------------------------------|
E|-----------------------------------------------|

That's All Folks
Tap to rate this tab
 
# A B C D E F G H I J K L M N O P Q R S T U V W X Y Z