Song name
# A B C D E F G H I J K L M N O P Q R S T U V W X Y Z

Washya - Pull Through The Pain tab

-------------------------------------------------------------------------------
                             Pull Through The Pain - Washya
-------------------------------------------------------------------------------
Tuning: Drop C (DAFCGC)
Intro
F|----5----2---------------------5-----8-5---------------------------|
A|------5----2---------------------5-5-------------------------------|
D|-------------------------------------------------------------------|
C|-------------------------------------------------------------------|
G|-------------1-3-4-3-1-3-----------------3-5-6-5-3-5---------------|
C|-00----------1-3-4-3-1-3--0000-----------3-5-6-5-3-5--0000-0-0-0-0-|
pm ..                       ....                        .... . . . .

Verses
F|--------------------------------------------------------------------|
A|--------------------------------------------------------------------|
D|--------------------------------------------------------------------|
C|---------------------------5-5-5-5--------------------------7-7-7-7-|
G|---------------------------3-3-3-3--------------------------5-5-5-5-|
C|-0-000-1b-00-00-0000-3b-00----------0-0-0-1b-00-00--0000-3b---------|
pm . ...    .. .. ....    ..          . . .    .. ..  .... 

Chorus
F|----------------------------------------------------------------------|
A|----------------------------------------------------------------------|
D|----------------------------------------------------------------------|
C|----33-------------------55-------------------------------------------|
G|-00-11-33-----3-2-----00-33-55-----5-4-----00-77-44-55-33-----2-1-----|
C|-00----33-3-6-----3-5-00----55-5-8-----5-7-00-77-44-55-33-2-5-----2-4-|
pm          . . . . . .          . . . . . .                . . . . . . 
Tap to rate this tab
 
# A B C D E F G H I J K L M N O P Q R S T U V W X Y Z