Song name
# A B C D E F G H I J K L M N O P Q R S T U V W X Y Z

Washya - Shredded Identity tab

-----------------------------------------------------------------------------
                       Shredded Identity - Washya
-----------------------------------------------------------------------------

Tuning: Standard (ebgDAE)
Intro
e|-------------------------------------|
b|-------------------------------------|
g|-------------------------------------|
D|-------------------------------------|
A|-------------------------------------|
E|-0-0-0-0-0-0-0-0-0-0-0-0-0-0-0-0-0-0-|x4
pm . . . . . . . . . . . . . . . . . .  

Intro 2
e|------------------------------------------------------------------|
b|------------------------------------------------------------------|
g|------------------------------------------------------------------|
D|------------------------------------------------------------------|
A|------1h2--------------1h2-------------1h2-------------1h2----3-5-|
E|-0-00-----00-3p2--0-00-----00-3p2-0-00-----00-3-1-0-00-----00-1-3-|
pm . ..     ..      . ..     ..     . ..     ..     . ..     .. 

Verses
e|----------------------------|
b|----------------------------|
g|----------------------------|
D|----------------------------|
A|-2-22-4/5-2-22-3/4-2-22-4/5-|
E|-0-00-2/3-0-00-1/2-0-00-2/3-|
pm . ..     . ..     . .. 

Chorus
e|-----------------------|
b|-----------------------|
g|-----------------------|
D|-----------------------|
A|-4/9\4/7\3/8\3/2\2-222-|
E|-2/7\2/5\1/6\1/4\0-000-|
pm                 . ... 

Interlude
e|-------------------------------------------------------------|
b|-------------------------------------------------------------|
g|-------------------------------------------------------------|
D|-----------------------7\6-7\6-7/11--------------------------|
A|-10\9-10\9-10\7-777777-5\4-5\4-5/9--8\7-8\7-8\5-55555-3-33-2-|
E|-8-\7-8-\7-8-\5-555555--------------6\5-6\5-6\3-33333-1-11-0-|
pm                ......                          .....   ..

Guitar Solo
e|----15----17----15-----17-18-20-18-17------------------------------|
b|-12----12----12----12-----------------20-18-17---------------------|
g|-----------------------------------------------20-18-17------------|
D|--------------------------------------------------------15-13-12---|
A|-------------------------------------------------------------------|
E|-------------------------------------------------------------------|

e|----------------------------------------------------------------15-|
b|----------------------------------------------11-12-14-------13----|
g|--------------------------------------11-12-9----------12-11-------|
D|------------------------------------9------------------------------|
A|-15-13-12---------------------11-12--------------------------------|
E|----------15-13-12-10h12p10-9--------------------------------------|

e|-15h18p17p15h18p17p15-17h20p19p17h20p19p17-----------------------|
b|-------------------------------------------20p19p17--------------|
g|----------------------------------------------------20p19p17-----|
D|-----------------------------------------------------------------|
A|-----------------------------------------------------------------|
E|-----------------------------------------------------------------|

e|----------------------------------------------------------------20p18p17-|
b|-------------------------------------------------------20p18p17----------|
g|----------------------------------------------20p18p17-------------------|
D|-20p19p17-------------------20p19p17h20p19p17----------------------------|
A|----------20p19p17h20p19p17----------------------------------------------|
E|-------------------------------------------------------------------------|

e|-13h15t20p15p13h15t20p15p13h15t21p15p13-15h18t21p18p15h18t21-22\--|
b|------------------------------------------------------------------|
g|------------------------------------------------------------------|
D|------------------------------------------------------------------|
A|------------------------------------------------------------------|
E|------------------------------------------------------------------|
Tap to rate this tab
 
# A B C D E F G H I J K L M N O P Q R S T U V W X Y Z