Song name
# A B C D E F G H I J K L M N O P Q R S T U V W X Y Z

Washya - The Rejected tab

-----------------------------------------------------------------------------
                          The Rejected - Washya
-----------------------------------------------------------------------------
Tuning: Standard (ebgDAE)
Intro
e|------------------------------------------------------------------------|
b|------------------------------------------------------------------------|
g|------------------------------------------------------------------------|
D|------------------------------------------------------------------------|
A|-44444444444444444444444------------------33333333333333----------------|
E|-------------------------6666666666666666----------------555555555555---|
pm ....................................................................

Part 2 (play x8)    Then This
e|-----------------|-------------------------|
b|-----------------|-------------------------|
g|-----------------|-------------------------|
D|---------3-------|-------------------------|
A|-----3-5---6-3---|-7/66/6/55-----5/44/4/33-|
E|-3-6-----------5-|-5/44/4/33-000-3/22/2/11-|x3
pm . . . . . . . .             ... 

Verses
e|--------------------------------------------------------------|
b|--------------------------------------------------------------|
g|--------------------------------------------------------------|
D|--------------------------------------------------------------|
A|-4-4-4---2-4-4-4---4-5-5-5---3-5-5-5---5-6-6-6---4-6-6-6-4-6--|
E|-------6---------2---------7---------3---------8---------2-4--|
pm . . . . . . . . . . . . . . . . . . . . . . . . . . . .     

Chorus
e|-------------------------------------------------------|
b|-------------------------------------------------------|
g|-------------------------------------------------------|
D|-----------------------------------------1-------------|
A|-4-4-4-4-44-7-7-7-7-77-6/5-4/3-3-2---2-4---4-2-555-5/7-|
E|-2-2-2-2-22-5-5-5-5-55-4/3-2/1-1-0-1-----------333-3/5-|
Tap to rate this tab
# A B C D E F G H I J K L M N O P Q R S T U V W X Y Z