Song name
# A B C D E F G H I J K L M N O P Q R S T U V W X Y Z

Washya - Wasted Life tab

-----------------------------------------------------------------------------
                      Wasted Life - Washya
-----------------------------------------------------------------------------
Tuning: Drop D (DADgbe)

Intro (Heavy Distortion) (Turn Gain Right UP Let it CRANK!!!)
e|-------------------------------------------------------|
b|-------------------------------------------------------|
g|-------------------------------------------------------|
D|-------------------------------------------------------|
A|-6-5-3-66-66-66-66-5-6-33-33-33-33-1-3-66-55-3h5-00-00-|
D|-6-5-3-66-66-66-66-5-6-33-33-33-33-1-3-66-55-3h5-00-00-|
pm          ..    ..        ..    ..     ..        .. .. 

Verses
e|------------------|
b|------------------|
g|--------------9-8-|
D|---9-8------------|
A|-------6h8--------|
D|-0---------00-----|
pm .         .. 

Chorus 
e|-----------------------------------------------------------|
b|-----------------------------------------------------------|
g|-----------------------------------------------------------|
D|-----------------------------------------------------------|
A|----12-10-15-13-12-12-12-13-15-13-10-10-12-9999-5555-3-5-9-|
D|-00-12-10-15-13-12-12-12-13-15-13-10-10-12-9999-5555-3-5-9-|

Interlude (Very Very Very Heavy Palm Muting)
e|--------------------------------------------------------------|
b|--------------------------------------------------------------|
g|--------------------------------------------------------------|
D|--------------------------------------------------------------|
A|-5555-3333-7777-5555-2222-2-3333-3-5555-8-8888-4-4444-0-0000--|
D|-5555-3333-7777-5555-2222-2-3333-3-5555-8-8888-4-4444-0-0000--|
pm .... .... .... .... .... . .... . .... . .... . .... . .... 
Tap to rate this tab
# A B C D E F G H I J K L M N O P Q R S T U V W X Y Z