Song name
# A B C D E F G H I J K L M N O P Q R S T U V W X Y Z

Washya - Sinicism tab

-----------------------------------------------------------------------------
                             Sinicism -  Washya
-----------------------------------------------------------------------------
Tuning Drop C (DAFCGC)
Intro
D|----------------------------------------------|
A|----------------------------------------------|
F|----------------------------------------------|
C|----------------------------------------------|
G|----------------------------------------------|
C|-000-000-000-000-000-000-000-000-000-000-000--|x4
pm ... ... ... ... ... ... ... ... ... ... ... 

Intro 2
D|-------------------------------------------------------------------|
A|-------------------------------------------------------------------|
F|-------------------------------------------------------------------|
C|-8\7-------------------------------------3\2-----------------------|
G|-9\8-------------------------------------4\3-------------6-3-------|
C|-----000-000-000-000-000-000-000-000-000-----000-000-000-----5h6p5-|
pm     ... ... ... ... ... ... ... ... ...     ... ... ...    

Verses
D|-------------------------------------------------------|
A|-------------------------------------------------------|
F|-----------------------------6/4-----------------------|
C|-------------------------------------------------------|
G|-----------------------------8/6---8p7---7p5---6h7p6h9-|
C|-000-000-000-000-000-000-000-----0-----0-----0---------|
pm ... ... ... ... ... ... ...     .     .     . 

Chorus                               ----->(2nd time Play palm muted)
D|-----------------------------------------------------------------|
A|-----------------------------------------------------------------|
F|---------------8\6-----------------------------------------------|
C|---------------xxx------------3--------7-5-----------------------|
G|---------0-3-0-10\8---------5---5-3-5--5-3---------1-3-5-6-5-3-1-|
C|-000-000-0-3-0------000-000----------------000-000-1-3-5-6-5-3-1-|
pm ... ...            ... ...                ... ... 
Tap to rate this tab
# A B C D E F G H I J K L M N O P Q R S T U V W X Y Z