Song name
# A B C D E F G H I J K L M N O P Q R S T U V W X Y Z

Washya - Wave Of Confusion tab

-----------------------------------------------------------------------------
                       Wave of Confusion - Washya
-----------------------------------------------------------------------------
Tuning: Drop C (DAFCGC)
Intro
D|------------------------------------------------|
A|------------------------------------------------|
F|------------------------------------------------|
C|------------------------------------------------|
G|----7----9----9h10p9-7-5----3----5----5h6p5-3-0-|
C|-00---00---00------------00---00---00---------0-|
pm ..   ..   ..            ..   ..   ..          

Verses
D|---------------------------------------------------------|
A|---------------------------------------------------------|
F|---------7----------------9----------------5-------------|
C|-----7h8---8p7-------9h10---10p9-------5h6---6p5---------|
G|---5---------------7-----------------3-----------555-5-7-|
C|-5-------------5/7---------------7\3-------------555-5-7-|
pm . . . .   . . . . . . .    .  . . . . . .   . .       

Chorus (Same as Intro But With Power Chords)
D|---------------------------------------------------------|
A|---------------------------------------------------------|
F|---------------------------------------------------------|
C|-----9-----11-----11/12\11\9\7---------------------------|
G|-0-0-7-0-0-9--0-0-9-/10\9-\7\5-0-0-3-0-0-5-0-0-5h6p5-3-0-|
C|-0-0---0-0----0-0--------------0-0-3-0-0-5-0-0-5h6p5-3-0-|
pm . .   . .    . .              . .   . .   . .         . 
Tap to rate this tab
 
# A B C D E F G H I J K L M N O P Q R S T U V W X Y Z