Song name
# A B C D E F G H I J K L M N O P Q R S T U V W X Y Z

Washya - This Bitter Life tab

-----------------------------------------------------------------------------
                        This Bitter Life - Washya
-----------------------------------------------------------------------------
Tuning: Standard (ebgDAE)
Intro
Play 3x                  Then This
e|-----------------------|-------------------------|
b|-----------------------|-------------------------|
g|-----------------------|--------3b~--------------|
D|---------3-------------|----9-7-----9-7-5--------|
A|-----7-5---7-5-3-----2-|-22-7-5-----7-5-3-7-5-2--|
E|-3-5-------------5-3-0-|-00---------------5-3-0--|

Verses
e|-------------------------------------------------|
b|-------------------------------------------------|
g|-------------------------------------------------|
D|-------3---5-----3-------------5---7-------------|
A|-3-4-5---5---6-5---------5-6-7-3-7-5-8-5-7-5-4-3-|
E|-------------------3-2-1-3-4-5---5---6-3-5-3-2-1-|

Chorus
e|--------------------------------------------------------|
b|--------------------------------------------------------|
g|--------------------------------------------------------|
D|---------2p0h2p0-4~-------------4-4-2-------------------|
A|-2-2-2h4------------2-2-2-2h4h6-------6-4-2-2-5-4-3-3-2-|
E|-0-0----------------0-0-------------------0-0-3-2-1-1-0-|

Guitar Solo
e|------------------------------------------------------------15----------|
b|------------------------------------------12-------12----------15-13-16-|
g|-/12~-12-------12-------12-------12----------12-11----12-11-------------|
D|---------12-11----12-11----12-11----12-11-------------------------------|
A|------------------------------------------------------------------------|
E|------------------------------------------------------------------------|

e|----17-19-17----17-19-17----17-19-17----17-20-18----18-20-18----20-21---|
b|-16----------16----------16----------16----------17----------17---------|
g|------------------------------------------------------------------------|
D|------------------------------------------------------------------------|
A|------------------------------------------------------------------------|
E|------------------------------------------------------------------------|

e|-20----20-21-20-------------------------------19-21-22b-22b-22b~-|
b|----17----------17----17-18-17----17-18----17--------------------|
g|-------------------15----------15-------15-----------------------|
D|-----------------------------------------------------------------|
A|-----------------------------------------------------------------|
E|-----------------------------------------------------------------|
Tap to rate this tab
# A B C D E F G H I J K L M N O P Q R S T U V W X Y Z