Song name
# A B C D E F G H I J K L M N O P Q R S T U V W X Y Z

Washya - Night Crawlers tab

-----------------------------------------------------------------------------
                 Night crawlers - Washya
-----------------------------------------------------------------------------
Tuning: Standard (ebgDAE)
Intro
e|----------------------------------------------------------------------|
b|----------------------------------------------------------------------|
g|----------------------------------------------------------------------|
D|----------------------------------------------------------------------|
A|-----5-5-5-5-5-55-5-5-----3-3-3-3-33-3-3-4-6-7-7-77-777-----4-4-4-4-5-|
E|-0-3---3-3-3-3-33-3-3-0-1---1-1-1-11-1-1-2-4-5-5-55-555-0-2---2-2-2-3-|
pm . . .                . . .                             . . . 

Verses
e|-----------------------------------------------------------------|
b|-----------------------------------------------------------------|
g|-----------------------------------------------------------------|
D|-----------------------------------------------------------------|
A|-5-5-5-5-5-5-5-5-7-7-7-7-7-7-7-7-3-3-3-3-3-3-3-3-5-5-5-5-5-5-5-5-|
E|-3-3-3-3-3-3-3-3-5-5-5-5-5-5-5-5-1-1-1-1-1-1-1-1-3-3-3-3-3-3-3-3-|
pm . . . . . . . . . . . . . . . . . . . . . . . . . . . . . . . . 

Chorus
e|------------------------------------------------------------------|
b|------------------------------------------------------------------|
g|------------------------------------------------------------------|
D|-------------7-5------------2-3---------------------------7\6-----|
A|-5-555-5-4-5-5-3-5-7-8-3-33-0-1-888777555333-2-3-33-2-3-3-5\4-666-|
E|-3-333-3-2-3-----3-5-6-1-11-----666555333111-0-1-11-0-1-1-----444-|

e|-------------------------------------------------------------------------|
b|-------------------------------------------------------------------------|
g|-------------------------------------------------------------------------|
D|---------------------------4h6p4-----------------------6h8p6---------3---|
A|-333-555-666-555-22-3-3-33-------6---------------------------8-------1-3-|
E|-111-333-444-333-00-1-1-11---------4-0-0-0-0-0-0-0-0-0---------6-000---1-|

Tap to rate this tab
# A B C D E F G H I J K L M N O P Q R S T U V W X Y Z