Song name
# A B C D E F G H I J K L M N O P Q R S T U V W X Y Z

Washya - Wrong Side Of The Law tab

-----------------------------------------------------------------------------
                         Wrong Side Of The Law - Washya
-----------------------------------------------------------------------------
Tuning: Drop C (DAFCGC)
Intro
D|-----------2----------------------------------|
A|---------3------------------------------------|
F|-------------3--------------------------------|
C|-------------------------2--------------------|
G|---5---3---------3---1-3-----3333-0-3-2-0-2-0-|
C|-5---3---------3---1-------3-3333-0-3-2-0-2-0-|
pm                             .... . . . . . . 

Verses
D|-----------6-8-----------3-5-------------2-------------0-|
A|---------7-------------5---------------2-----------0h2---|
F|-------------------------------------3-------------------|
C|---------------------------------------------------------|
G|---7---5---------5---3---------3---1---------1---0-------|
C|-7---5---------5---3---------3---1---------1---0---------|

Chorus
D|---------------------------------------------------------------------|
A|---------------------------------------------------------------------|
F|---------------------------------------------------------------------|
C|-------5-555-------3-333-------------2-222-6-666---------------------|
G|-5-555-3-333-3-333-1-111-3-333-1-111-0-000-4-444-4-444-6-666-3-333-0-|
C|-5-555-------3-333-------3-333-1-111-------------4-444-6-666-3-333-0-|
Tap to rate this tab
# A B C D E F G H I J K L M N O P Q R S T U V W X Y Z