Song name
# A B C D E F G H I J K L M N O P Q R S T U V W X Y Z

Washya - Rest In Peace tab

-----------------------------------------------------------------------------
                       Rest In Peace - Washya
-----------------------------------------------------------------------------
Tuning: Standard (ebgDAE)
Intro
e|-------------------------------------|
b|-------------------------------------|
g|-------------------------------------|
D|-----3-----3-6-5-------3-------------|
A|-5-6---5-6-------3-5-6---6-5-------2-|
E|-----------------------------6-5-3-0-|

Verses
e|--------------------------------------------------------------------|
b|--------------------------------------------------------------------|
g|------------------------------------------------3-------------------|
D|--------------------------------------------5-6---5-6---------------|
A|------------------------------------------3-------------------------|
E|-000-000-00-000-000-00-000-000-00-000-000------------00-000-00-000--|
pm ... ... .. ... ... .. ... ... .. ... ...            .. ... .. ...

e|---------------------------------------------------------------------|
b|---------------------------------------------------------------------|
g|---------------------------------------------------------------------|
D|------------------------------------------5--------------------------|
A|--------------------------------------5-6---3-5----------------------|
E|-00-000-00-000-00-000-00-000-00-000-3-----------000-00-000-00-000-00-|
pm .. ... .. ... .. ... .. ... .. ...             ... .. ... .. ... .. 

Chorus
e|-----------------------------------------------------------------------|
b|-----------------------------------------------------------------------|
g|-----------------------------------------------------------------------|
D|-----------------------------------------6-5-3-------------------------|
A|---------------------------------------3-------------------------------|
E|-000-1b1-000-1b1-000-1b1-000-1b-00-3-6---------000-1b1-000-1b1-000-1b1-|
pm ...     ...     ...     ...    ..             ...     ...     ... 

e|------------------------|
b|------------------------|
g|------------------------|
D|----------------3-------|
A|------------3-5---------|
E|-000-1b1-00-------6-5-3-|
   ...     .. 

Interlude (Play Fast)
e|----------------------------------|
b|----------------------------------|
g|----------------------------------|
D|----7---5-------------------------|
A|-/7---7---7-6-5---5-------------2-|
E|----------------7---8-7-5-7-5-3-0-|x5
Tap to rate this tab
# A B C D E F G H I J K L M N O P Q R S T U V W X Y Z