Song name
# A B C D E F G H I J K L M N O P Q R S T U V W X Y Z

Washya - Mouth For War tab

-----------------------------------------------------------------------------
                         Mouth For War - Pantera
-----------------------------------------------------------------------------
Tuning: Standard (ebgDAE)
Intro
e|-------------------------------------------------------|
b|-------------------------------------------------------|
g|---------------4-------4-4-------4--------------4----4-|
D|---------------4-------4-4-------4--------------4----4-|
A|-0-1-2-2-2-2-2-2-2-2-2-----2-2-2-2-0-1-2-2-2-2-2-2-2-2-|
E|-------------------------------------------------------|
pm . . . . . . .   . . .     . . .   . . . . . . . . .       

Verses                        (A.H.)
e|---------------------------5-555-5---|
b|---------------------------5-555-5---|
g|---------------------------5-555-5---|
D|-------------------------------------|
A|-2-5/9---5/9---5/9---5/9-2-----------|
E|-0-3/7-0-3/7-0-3/7-0-3/7-0-----------|

Main Riff/Chorus                             (A.H.)
e|---------------------------------------------555--|
b|---------------------------------------------555--|
g|---------------------------------------------555--|
D|--------------------------------------------------|
A|-2-8/9---9/10---7/8---5-2-8/9---9/10---7/8--------|
E|-0-6/7-0-7/8--0-5/6-0-3-0-6/7-0-7/8--0-5/6-0------|

Breakdown (Under Solo
e|-------------------------------------------|
b|-------------------------------------------|
g|-------------------------------------------|
D|------------------9-8-7-----------9-8-7--|
A|-6/8-8-8-10\8-8-8-7-6-5-5-5-3-2---7-6-5--|
E|-4/6-6-6-8-\6-6-6-------3-3-1-0-x--------|
Tap to rate this tab
# A B C D E F G H I J K L M N O P Q R S T U V W X Y Z