Song name
# A B C D E F G H I J K L M N O P Q R S T U V W X Y Z

Washya - Awaken The Beast tab

-----------------------------------------------------------------------------
                   Awaken The Beast - Washya
-----------------------------------------------------------------------------
Tuning: Standard (ebgDAE)
Intro
e|------------------------------------------------|
b|------------------------------------------------|
g|------------------------------------------------|
D|------------------------------------------------|
A|-22-3/4-22-3/4-7\6-22-3/4---5-22-3/4-7\6-22-3/4-|
E|-00-1/2-00-1/2-5\4-00-1/2-x-3-00-1/2-5\4-00-1/2-|
pm ..     ..         ..         ..         .. 

Verses
e|---------------------------------------------------|
b|---------------------------------------------------|
g|---------------------------------------------------|
D|-----------------------------------5---------------|
A|-5-55-6-5-3---7-77-8-7-5---7-777-7-3-5-3-5-----5-2-|
E|-3-33-------5-5-55-------7-5-555-5---3-----6-5-3-0-|

Chorus
e|-----------------------------------------------------|
b|-----------------------------------------------------|
g|-----------------------------------------------------|
D|-----------------------------------------------------|
A|---------------------------1---------------------6-4-|
E|-0-0-0-0-0-0-0-0-0-0-0-0-3---3-2-0-0-0-0-0-0-0-0-4-2-|
pm . . . . . . . . . . . .         . . . . . . . . 
Tap to rate this tab
 
# A B C D E F G H I J K L M N O P Q R S T U V W X Y Z