Song name
# A B C D E F G H I J K L M N O P Q R S T U V W X Y Z

Washya - Open Your Mind tab

-----------------------------------------------------------------------------
                    Open Your Mind - Washya
-----------------------------------------------------------------------------
Tuning: Standard (ebgDAE)
Intro (Lead)
e|------------------------------------|
b|---9-8------------------------------|
g|-----------8-7----------/9-12-11----|
D|-------6-----------6-5--------------|
A|---------------5-----------------9~-|
E|-0---------------3---------------9~-|

Intro (Rhythm)
e|-------------------------------|
b|-------------------------------|
g|-7-----------------------------|
D|-7-----------------------------|
A|-5-555-555-55-55-555-555-55-55-|
E|-0-333-333-33-33-333-333-33-33-|
pm   ... ... .. .. ... ... .. .. 

Verses (Lead)         (A.H)
e|---------------------12-------------------12-10-15~-|
b|----------10-9/13~------12------------10b-------15~-|
g|---7-10-------------------------------10b-----------|
D|---------------------------10~---8-7----------------|
A|--------8-------------------------------------------|
E|-0-----------------0-----------0--------------------|
pm .                 .           . 

Verses (Rhythm)
e|-----------------------------------------------------------------|
b|-----------------------------------------------------------------|
g|-----------------------------------------------------------------|
D|-----------------------------------------------------------------|
A|-3-3333-3-33--3-3333-33-3-333-3-33-2-2222-22-2-2222-22-2-2222-22-|
E|-1-1111-1-11--1-1111-11-1-111-1-11-0-0000-00-0-0000-00-0-0000-00-|
pm . .... . ..  . .... .. . ... . .. . .... .. . .... .. . .... .. 

Chorus (Lead)
e|---------------------------15-13---------------13--|
b|---------------15-12---------------------15-12-----|
g|---15-13-------------------------12----------------|
D|---------------------13----------------------------|
A|---------12----------------------------------------|
E|-0-----------0----------0-----------0--------------|
pm .           .          .           . 

Chorus (Rhythm)
e|-------------------------------------------------------|
b|-------------------------------------------------------|
g|-------------------------------------------------------|
D|-------------------------999-88-8-888-77-7-777---------|
A|-2-3-2-3-2-3-2-4-5-6-----777-66-6-666-55-5-555-5-4-3-2-|
E|-0-1-0-1-0-1-0-2-3-4-x10-----------------------3-2-1-0-|

Guitar Solo (Lead)
(Play Slow)
e|-----------------------------------------------------------12b-15------|
b|------------------------------------8------8---------------------------|
g|-9bh10p7~-9bh10p7-7-7-6-7-9-9-7~--9------9------------------------12b--|
D|--------------------------------------9b-----9b-9-7-9-9-7~--------12b--|
A|-----------------------------------------------------------------------|
E|-----------------------------------------------------------------------|

e|-12b-15------------------------------12-14-15b-15-16-13-11h13p11------|
b|----------------------------12-14-15----------------------------------|
g|--------12b-14p12h14-14p12~-------------------------------------------|
D|--------12b-----------------------------------------------------------|
A|----------------------------------------------------------------------|
E|----------------------------------------------------------------------|

e|-----------------------------------------------------------------------|
b|---------------------------------------------------------9b-8---9b-8---|
g|------------------------------9------9------9------------9b---9-9b---9-|
D|-/4bh5p2~-4bh5p2-2-0-2-2-2~-7b--7-7b---7-7b---7-6-9-9-7~---------------|
A|-----------------------------------------------------------------------|
E|-----------------------------------------------------------------------|

e|-----------------------10p8~---10p8~---10p8-7-5-7-7-5~-------------|
b|-9b-8----------------7-------7-------7--------------5~-------------|
g|-9b---9-7----------------------------------------------9bh10p7~----|
D|----------9-9b-9b-7~-----------------------------------9b----------|
A|-------------------------------------------------------------------|
E|-------------------------------------------------------------------|

e|-------------------------------------------------7--------------12-10-|
b|---------------------------------------------------10-7---7-10b-------|
g|-9bh10p7~-9bh10p7-5---5-5---9-7b---9-7-5-7-9-9-7--------9-------------|
D|-9b-------9b--------7-----7------7------------------------------------|
A|----------------------------------------------------------------------|
E|----------------------------------------------------------------------|

e|-----12-10------------------------18p17~----18p17~----18p17-15-17-18b-18b-|
b|-12b-------12b-14p12h14-14-12~-15--------15--------15---------------------|
g|--------------------------------------------------------------------------|
D|--------------------------------------------------------------------------|
A|--------------------------------------------------------------------------|
E|--------------------------------------------------------------------------|

e|-15~-----------------------------------------------------2-4-5bh6p3--|
b|---------------------------------------------------2-3-5-------------|
g|--------5p4~----5p4-2-0-4b-4b-2~-------------2-4-5-------------------|
D|-----2b------2b------------------------2-3-5-------------------------|
A|---------------------------------2-3-5-------------------------------|
E|---------------------------------------------------------------------|
pm                                 . . . . . . . . . . .                

e|-5bh6p3----------------------------------------------------------------|
b|--------5-3-55-3~-----14p12~----14p12-10----10-10------------10--------|
g|------------------/12--------12----------12-------12-9-11-12-------10--|
D|----------------------------------------------------------------12-----|
A|-----------------------------------------------------------------------|
E|-----------------------------------------------------------------------|

e|-----------------/21bh22p19~--21bh22p19-17----17b-17bp16~----20----21~-|
b|-------------------------------------------19-------------18----18-----|
g|-----------------------------------------------------------------------|
D|-12-10-12-12-10~-------------------------------------------------------|
A|-----------------------------------------------------------------------|
E|-----------------------------------------------------------------------|

Legend:
pm = Palm Mute
/ - slide up to fret
~ - vibrato
h = hammer on 
p = pull off
b = bend 
A.H. = Artificial Harmonic 
Tap to rate this tab
# A B C D E F G H I J K L M N O P Q R S T U V W X Y Z