Song name
# A B C D E F G H I J K L M N O P Q R S T U V W X Y Z

Washya - Fire At Will tab

-----------------------------------------------------------------------------
                    Fire At Will - Washya
-----------------------------------------------------------------------------
Tuning: Drop B (BF#BEG#C#)
Intro
B|--------------------------------------------------------------|
F#|-------------------------------------------------------------|
B|--------------------------------------------------------------|
E|------------------------------------------------------5-------|
G#|-------------------------7-7h8p5-----------------7h8---5-7---|
C#|-0-0-0-0-0-0-0-0-0-0-0-0---------0-0-0-0-0-0-0-0-------------|
pm  . . . . . . . . . . . .         . . . . . . . . 

B|------------------------------------------------------------------------|
F#|-----------------------------------------------------------------------|
B|------------------------2-----------------------3-----------------------|
E|----------------------2---2-----------------3-5-------------------------|
G#|-----------------2p0-----------------------------6-5-3-----------------|
C#|-0-0-0-0-0-0-0-0-----------0-0-0-0-0-0-0-0-------------0-0-0-0-0-0-0-0-|
pm  . . . . . . . .           . . . . . . . .             . . . . . . . .

B|----3h5p3h6-------------------------|
F#|-3---------------------------------|
B|------------------------------------|
E|----------------------------3-2-1-0-|
G#|---------------------------3-2-1-0-|
C#|-----------0-0-0-0-0-0-0-0-3-2-1-0-|
pm            . . . . . . . . 

Verses
B|-------------------------------------------------------------------|
F#|------------------------------------------------------------------|
B|---------------------------1---------------------------------------|
E|-------------------------2---2----------------------------2----2/3-|
G#|----------------------3----------------------------------2----2/3-|
C#|-0-0000-0-0000-0-0000---------3--0-0000-0-0000-0-0000-00---00-----|
pm  . .... . .... . ....            . .... . .... . .... ..   .. 

B|---------------------------------------------------------------------|
F#|--------------------------------------------------------------------|
B|---------------------------------------1-----------------------------|
E|-----3\1----2------------------------2---2-----------------3\2-------|
G#|----3\1----2----------------------3-----------------------3\2-3-2-0-|
C#|-00-----00---0-0000-0-0000-0-0000---------3-0-0000-0-0000-----3-2-0-|
 Pm ..     ..   . .... . .... . ....           . .... . .... 

Chorus
B|-----------------------------------------------------------------------|
F#|----------------------------------------------------------------------|
B|-----------------------------------------------------------------------|
E|-----------------------------------------------------------------------|
G#|-0-3/6-0-4/7-0-3/6-0-4/7-5-2-5-6-2-5-6-3-6-7-3-6-7-777-10-10-12-12-12-|
C#|-0-3/6-0-4/7-0-3/6-0-4/7-5-2-5-6-2-5-6-3-6-7-3-6-7-777-10-10-12-12-12-|

B|-------------|
F#|------------|
B|-------------|
E|-------------|
G#|-10h12p10-7-|
C#|-10h12p10-7-|




Tap to rate this tab
# A B C D E F G H I J K L M N O P Q R S T U V W X Y Z