Song name
# A B C D E F G H I J K L M N O P Q R S T U V W X Y Z

Washya - Throw Yourself On Me tab

-----------------------------------------------------------------------------
                Throw Yourself On Me - Washya
-----------------------------------------------------------------------------
Tuning: Standard (ebgDAE)
Intro/Verses
e|----------------------------------|
b|-------3-------3--------5-------5-|
g|---4-------4--------6-------6-----|
D|-----5-------5--------7-------7---|
A|-5-------5--------7-------7-------|
E|----------------------------------|

Chorus (Heavy Strumming)
e|--------------------------|
b|--------------------------|
g|--------------------------|
D|--------------------------|
A|-44-44-44-44-4--------4-2-|
E|-22-22-22-22-2/13p12~-2-0-|
pm .. .. .. .. .    

Solo
e|---------------------------------7-10b~-|
b|-------------------------------8--------|
g|-------------------7---7-9-7-9----------|
D|-------7---7-9-7-9---9------------------|
A|-9-7-9---9------------------------------|
E|----------------------------------------|

e|-10h14p10-------10h13p10-------12h15p12----12h15p12----12h15p12-----|
b|----------11-12----------11-12----------13----------13----------13--|
g|--------------------------------------------------------------------|
D|--------------------------------------------------------------------|
A|--------------------------------------------------------------------|
E|--------------------------------------------------------------------|

e|-12h15p12----15h18p15----15h18p15----15h18p15----15-18-18~-|
b|----------13----------16----------16----------16-----------|
g|-----------------------------------------------------------|
D|-----------------------------------------------------------|
A|-----------------------------------------------------------|
E|-----------------------------------------------------------|
Tap to rate this tab
# A B C D E F G H I J K L M N O P Q R S T U V W X Y Z