Song name
# A B C D E F G H I J K L M N O P Q R S T U V W X Y Z

Washya - The Punishment tab

-----------------------------------------------------------------------------
                 The Punishment  - Washya
-----------------------------------------------------------------------------
Tuning: Standard (EBGDAE) 
Intro
e|---------------------------------------|
b|---------------------------------------|
g|---------------------------------------|
D|---------------------------------------|
A|-2-222-2-2-2--2-222-2-2-2--2-222-2-2-2-|
E|-0-000-0-0-0--0-000-0-0-0--0-000-0-0-0-|
pm . ... . . .  . ... . . .  . ... . . . 

Intro 2 (Play VERY Fast)
e|-----------------------------------------------------------|
b|-----------------------------------------------------------|
g|-----------------------------------------------------------|
D|-----------------------------------------------------------|
A|---------------------------------------------------------2-|
E|-3-6-5-3-5-8-7-5-1-4-3-1-4-7-6-4-3-6-5-3-6-9-8-6-3-6-5-3-0-|x 4
pm . . . . . . . . . . . . . . . . . . . . . . . . . . . . 

Verses
e|-------------------------------------------------------------------------|
b|-------------------------------------------------------------------------|
g|-------------------------------------------------8p7~--------------------|
D|----------------------------------4/3------------------------------------|
A|-3----------5----------4----------2/1-2---------------3----/4----5-----2-|
E|-1111111111-3333333333-2222222222-----0000000000------11111/2222/33333-0-|
pm  .........  .........  .........      .........       ....  ...  ....

Chorus
e|--------------------------------------------------------------------|
b|--------------------------------------------------------------------|
g|--------------------------------------------------------------------|
D|---------------------------5/7--------------------------------------|
A|--10-------4-4/5-2---------3/5-7\5-------22-3-4-3-------------1p0-3-|
E|-/88888888-2-2/3-000000000-----5\3333333-00-1-2-1111111-0h3p0-----1-|
pm   .......        ........        ......         ...... 
Tap to rate this tab
 
# A B C D E F G H I J K L M N O P Q R S T U V W X Y Z