Song name
# A B C D E F G H I J K L M N O P Q R S T U V W X Y Z

Washya - Kraze tab

-----------------------------------------------------------------------------
                      Kraze - Washya
-----------------------------------------------------------------------------
Tuning: Drop C (DAFCGC)
Intro
D|---------------|
A|---------------|
F|---------------|
C|-xx-xx-xxxx-xx-|
G|-xx-xx-xxxx-xx-|
C|-xx-xx-xxxx-xx-|x many
pm .. .. .... .. 

Intro (Lead with Delay)
D|-----10-9-----10-9-|
A|---7---------------|
F|----------7-7------|
C|-------------------|
G|-------------------|
C|-0-----------------|
PM . 

Verses (rhythm section)
D|------------------------------|
A|------------------------------|
F|------------------------------|
C|-00-00-0000-1-0-00-00-1111-00-|
G|-00-00-0000-1-0-00-00-1111-00-|
C|-00-00-0000-1-0-00-00-1111-00-|
pm .. .. ....   . .. ..      .. 

Verses (Lead with Delay)
D|----15-14-------15-14-|
A|-12-------------------|
F|----------12-12-------|
C|----------------------|
G|----------------------|
C|----------------------|

Chorus (rhythm section)
D|-----------------------------------------------|
A|-----------------------------------------------|
F|---------------------------7/6-----------------|
C|-0h1p0-6/5-00-00-000-0h1p0-7/6-0h1p0-11-11-111-|
G|-0h1p0-6/5-00-00-000-0h1p0-5/4-0h1p0-11-11-111-|
C|-0h1p0-6/5-00-00-000-0h1p0-----0h1p0-11-11-111-|

Tap to rate this tab
 
# A B C D E F G H I J K L M N O P Q R S T U V W X Y Z