Song name
# A B C D E F G H I J K L M N O P Q R S T U V W X Y Z

Washya - Save Me tab

-----------------------------------------------------------------------------
                     Save me - Washya
-----------------------------------------------------------------------------
Tuning: Drop B (BF#BEG#C#)
Intro
B|---------------------------------------|
F#|--------------------------------------|
B|---------------------------------------|
E|------5------7-----3-----4-----8-----8-|
G#|---3------5-----1-----2-----6---6---6-|
C#|-3------5-----1-----2-----6-------6-6-|
pm  . .    . .   . .   . .   . .   . .  

Verses
B|-----------------------------------------------------------|
F#|----------------------------------------------------------|
B|-----------------------------------------------------------|
E|-----------------------------------------------------------|
G#|-00-0-111-0-00-11-00-0-11111-0-0h1p0-00-11-0-111111-0-2p1-|
C#|-00-0-111-0-00-11-00-0-11111-0-0h1p0-00-11-0-111111-0-2p1-|
pm  .. .     . ..    .. .       . .   . ..    .        . 

Chorus
B|-----------------------------------------------------------|
F#|----------------------------------------------------------|
B|---7-7-5-5-4-4------4-4-5-5-7-9-8-7-----------------888\7--|
E|---x-x-x-x-x-x------x-x-x-x-x-x-x-x-----------------xxxxx--|
G#|--5-5-3-3-2-2-3-1--2-2-3-3-5-7-6-5-3-4-1-3-4-3-1-0-666\5--|
C#|--------------3-1------------------3-4-1-3-4-3-1-0--------|
Tap to rate this tab
# A B C D E F G H I J K L M N O P Q R S T U V W X Y Z