Song name
# A B C D E F G H I J K L M N O P Q R S T U V W X Y Z

Washya - Crucified tab

-----------------------------------------------------------------------------
                         Crucified
-----------------------------------------------------------------------------
Tuning: Standard (ebgDAE)
Intro/Verses
e|---------------------------------------------0-----------0-|
b|-2-----------------1p0h1---------2-------------1p0-----2-0-|
g|---2-------------2-------2---------2-------4-------2-3-----|
D|-----2-----2-2-2-----------2-2-2---------4-----------------|
A|---------2---0---------------0---------2-------------------|
E|-------4-----------------------------4---------------------|

Chorus
e|-----------------|
b|-----------------|
g|-----------------|
D|---------------3-|
A|-3-2-3-4-5-----1-|
E|-1-0-1-2-3-x10---|

Lead Parts (verses)
e|-----10-8-7---7-5-----------|
b|-7h8--------7-----7---------|
g|----------------------------|
D|----------------------------|
A|----------------------------|
E|----------------------------|

Lead Parts (Chorus)
e|-----------------------9-12-11---12-15~-|
b|-------9---------11-12---------9--------|
g|-12-11---12-11-9------------------------|
D|----------------------------------------|
A|----------------------------------------|
E|----------------------------------------|
Tap to rate this tab
# A B C D E F G H I J K L M N O P Q R S T U V W X Y Z