Song name
# A B C D E F G H I J K L M N O P Q R S T U V W X Y Z

Washya - Hillside Stopover tab

-----------------------------------------------------------------------------
                           Hillside Stopover 
-----------------------------------------------------------------------------
Tuning: Standard (ebgDAE)
Intro
e|----------------------------|
b|----------------------------|
g|----------------------------|
D|-7-77-7-9-7-77-7-9----------|
A|-5-55-5-7-5-55-5-7-9-99-5-7-|
E|-------------------7-77-3-5-|

Verses
e|--------------------------------------------------------|
b|--------------------------------------------------------|
g|--------------------------------------------------------|
D|-------------------7-777-77----------5-555-55-7-777-----|
A|-7-777-77-5-555-55-5-555-55-5-555-55-3-333-33-5-555-5-7-|
E|-5-555-55-3-333-33----------3-333-33----------------3-5-|
pm   ..  .    ..  .  . ..     . ..  .  . ..  ..   ..  .   

Chorus
e|-------------------------------------------------------------------------|
b|-------------------------------------------------------------------------|
g|-------------------------------------------------------------------------|
D|---------------------------------------------5-------7-77----------------|
A|-------5-------7-77-------3-------5-55-5-6-8---8-6-5-5-55-------3--------|
E|-5-6-8---8-6-5-5-55-3-4-6---6-4-3-3-33--------------------3-4-6---6-4-3--|
PM . . . . . . .      . . . . . . .      . . . . . . .      . . . . . . . 

e|-----------------------------------------------------------------|
b|-----------------------------------------------------------------|
g|-----------------------------------------------------------------|
D|-------------3-------5-555-------5-------7-777-------------------|
A|-5-555-3-4-6---6-4-3-3-333-5-6-8---8-6-5-5-555-------3-------5-7-|
E|-3-333-----------------------------------------3-4-6---6-4-3-3-5-|
pm       . . . . . . .       . . . . . . .       . . . . . . . 
Tap to rate this tab
 
# A B C D E F G H I J K L M N O P Q R S T U V W X Y Z