Song name
# A B C D E F G H I J K L M N O P Q R S T U V W X Y Z

Washya - Scratching The Itch tab

-----------------------------------------------------------------------------
                        Scratching The Itch
-----------------------------------------------------------------------------
Tuning: Drop C (DAFCGC)
intro (Heavy palm muting lightly touch strings)
D|------------------------------------|
A|------------------------------------|
F|------------------------------------|
C|-x-xx-x-x-2-x-xx-x-x-3p2-x-xx-x-x-2-|
G|-x-xx-x-x-2-x-xx-x-x-3p2-x-xx-x-x-2-|
C|-x-xx-x-x-2-x-xx-x-x-3p2-x-xx-x-x-2-|
pm . .. . .   . .. . .     . .. . . 

Verses
D|-----------------------------------------|
A|-----------------------------------------|
F|-----------------------------------------|
C|-x-xxx-x-x-2-x-xxx-x-x-3p2/6\5-x-xxx-x-x-|
G|-x-xxx-x-x-2-x-xxx-x-x-3p2/6\5-x-xxx-x-x-|
C|-x-xxx-x-x-2-x-xxx-x-x-3p2/6\5-x-xxx-x-x-|

Chorus                                             (A.H.)
D|---------------------------------------------------5---|
A|---------------------------------------------------5---|
F|---------------------------------------------------5---|
C|----------5-555-------------------4-44-----------------|
G|-----3-33-3-333-0-000-1-111-2-222-2-22-4-7-3-6-2-3-----|
C|-//x-3-33-------0-000-1-111-2-222------4-7-3-6-2-3-----|
Tap to rate this tab
# A B C D E F G H I J K L M N O P Q R S T U V W X Y Z