Song name
# A B C D E F G H I J K L M N O P Q R S T U V W X Y Z

Washya - Escapee tab

-----------------------------------------------------------------------------
                            Escapee
-----------------------------------------------------------------------------
Tuning: Drop D (DADGBE)
Intro/verses
e|--------------------------------|
b|--------------------------------|
g|--------------------------------|
D|--------------------------------|
A|----7p5h7----7p5h7----7p5h7-5h7-|
D|-00-------00-------00-----------|
pm ..       ..       .. 

Part 2 
e|---------------------------------|
b|---------------------------------|
g|---------------------------------|
D|---------------------------------|
A|-------6655888888-555666---------|
D|-4444--------------------4444444-|
pm .... ........... ...... .......

Main Riff
e|------------------------------------------------------------------|
b|------------------------------------------------------------------|
g|------------------------5----------3-----------2-----0-2----------|
D|---0-----2~-------------5----------3-----------2-0-2-----2-0-2-2~-|
A|-----2-0-------------------------------------------------------2~-|
D|-0----------//-0000-0-0---0000-0-0---00000-0-0--------------------|
pm               .... . .   .... . .   ..... . .  
Tap to rate this tab
# A B C D E F G H I J K L M N O P Q R S T U V W X Y Z