Song name
# A B C D E F G H I J K L M N O P Q R S T U V W X Y Z

Washya - Left Alone tab

-----------------------------------------------------------------------------
                        Left Alone - Washya
-----------------------------------------------------------------------------
Tuning: Drop B (BF#BEG#C#)
Intro 1 (Lead)
C#|-------------------------------|
G#|-------------------------------|
E|---9h12p11p9h12p11p9h12p11p9-7b-|
B|--------------------------------|
F#|-------------------------------|
B|--------------------------------|

Intro (Rhythm)
C#|------------------------------------------------|
G#|------------------------------------------------|
E|--------------------------------7p5h7------7p5h7-|
B|-------------------------------------------------|
F#|-00-0-00000-1-3-4-6-4-3-1-00-0-------00-0-------|
B|--00-0-00000-1-3-4-6-4-3-1-00-0-------00-0-------|
pm  .. . .....               .. .       .. .

Verses
C#|------------------------------------------|
G#|------------------------------------------|
E|-------------------------------------------|
B|-------------------------------------------|
F#|-11-1-11111-0-1-0-5p4-1-3-4-6-4-3-1-0-1-0-|
B| -11-1-11111-0-1-0-5p4-1-3-4-6-4-3-1-0-1-0-|

Chorus
C#|----------------------------------------------|
G#|----------------------------------------------|
E|-----8-7-5-----------------8-7-5---------------|
B|-----x-x-x-----------------x-x-x---------------|
F#|-00-6-5-3-5-6-5-3-1-0--00-6-5-3-3-5-2-1-0-----|
B|--00-------5-6-5-3-1-0--00-------3-5-2-1-0-----|
pm  ..                    ..
Tap to rate this tab
# A B C D E F G H I J K L M N O P Q R S T U V W X Y Z