Song name
# A B C D E F G H I J K L M N O P Q R S T U V W X Y Z

Washya - War Revolution tab

-----------------------------------------------------------------------------
                   War Revolution - Washya
-----------------------------------------------------------------------------
Tuning: E Flat (Eb Ab Db Gb Bb Eb) 
Intro
Eb|---------------------------------------|
Bb|---------------------------------------|
Gb|---------10b----------8b---------------|
Db|-----/8b----------/6b----8b------------|
Ab|-------------5-8------------7b---------|
Eb|-000---------3-6---------------5-4-3-0-|
pm  ... 

Main Riff
Eb|------------------------------------------------------------------------|
Bb|------------------------------------------------------------------------|
Gb|------------------------------------------------------------------------|
Db|---------------------5------------------------------7-5---------7-5-----|
Ab|-----------------5-7---7-6-5---5----------------5-7-----7-5-5-7-----7-5-|
Eb|-0-0-0-0-0-0-0-0-------------7---7-5--0-0-0-0-0-------------------------|
pm  . . . . . . . .                      . . . . .


Verses
Eb|------------------------------------------------------------|
Bb|------------------------------------------------------------|
Gb|------------------------------------------------------------|
Db|------------------------------------------------------------|
Ab|---------------------------------------------------3333-555-|
Eb|-0-0-3-6-5-3-0-0-1-4-3-1-0-0-3-6-5-3-0-0-1-4-3-1-0-1111-333-|
pm  . . . . . . . . . . . . . . . . . . . . . . . . . 

Chorus
Eb|------------------------------------------------------|
Bb|------------------------------------------------------|
Gb|------------------------------------------------------|
Db|---------5h6h8---5h6h8p6p5-------7h8------7h8---------|
Ab|-------3-------3-----------3-5-5--------5-------------|
Eb|-0-0-0---------------------1-3-------8~-------8~-1bp0-|

Solo 1
Eb|----------------------------|
Bb|----------------------------|
Gb|----------------------------|
Db|----------------------------|
Ab|-----4p2h4/5p4h5/7p5/7/9-9~-|
Eb|-4-4------------------------|

Eb|-9p8p6h8p7/5h8p7p5/4h5p4p2-------|
Bb|---------------------------4p2h4-|
Gb|---------------------------------|
Db|---------------------------------|
Ab|---------------------------------|
Eb|---------------------------------|

Main Riff
Eb|------------------------------------------------------------------------|
Bb|------------------------------------------------------------------------|
Gb|------------------------------------------------------------------------|
Db|---------------------5------------------------------7-5---------7-5-----|
Ab|-----------------5-7---7-6-5---5----------------5-7-----7-5-5-7-----7-5-|
Eb|-0-0-0-0-0-0-0-0-------------7---7-5--0-0-0-0-0-------------------------|
pm  . . . . . . . .                      . . . . .

Verses
Eb|------------------------------------------------------------|
Bb|------------------------------------------------------------|
Gb|------------------------------------------------------------|
Db|------------------------------------------------------------|
Ab|---------------------------------------------------3333-555-|
Eb|-0-0-3-6-5-3-0-0-1-4-3-1-0-0-3-6-5-3-0-0-1-4-3-1-0-1111-333-|
pm  . . . . . . . . . . . . . . . . . . . . . . . . . 

Chorus
Eb|------------------------------------------------------|
Bb|------------------------------------------------------|
Gb|------------------------------------------------------|
Db|---------5h6h8---5h6h8p6p5-------7h8------7h8---------|
Ab|-------3-------3-----------3-5-5--------5-------------|
Eb|-0-0-0---------------------1-3-------8~-------8~-1bp0-|

Solo 2
Eb|--------------------------------12p11p10h12p11p10h12p11p10--------------|
Bb|-----------------------------------------------------------9p8p6--------|
Gb|-3p2h3/5h6p5h6/8h10p8h10/12-12~----------------------------------9p8p6--|
Db|------------------------------------------------------------------------|
Ab|------------------------------------------------------------------------|
Eb|------------------------------------------------------------------------|

Main Riff
Eb|------------------------------------------------------------------------|
Bb|------------------------------------------------------------------------|
Gb|------------------------------------------------------------------------|
Db|---------------------5------------------------------7-5---------7-5-----|
Ab|-----------------5-7---7-6-5---5----------------5-7-----7-5-5-7-----7-5-|
Eb|-0-0-0-0-0-0-0-0-------------7---7-5--0-0-0-0-0-------------------------|
pm  . . . . . . . .                      . . . . .

Verses
Eb|------------------------------------------------------------|
Bb|------------------------------------------------------------|
Gb|------------------------------------------------------------|
Db|------------------------------------------------------------|
Ab|---------------------------------------------------3333-555-|
Eb|-0-0-3-6-5-3-0-0-1-4-3-1-0-0-3-6-5-3-0-0-1-4-3-1-0-1111-333-|
pm  . . . . . . . . . . . . . . . . . . . . . . . . . 

Outro
Eb|------------------------------------------11h12/15~-|
Bb|---------------------------------10h11p10-----------|
Gb|---------------------11p10h11p10--------------------|
Db|-------------9p8h9p8--------------------------------|
Ab|-----6p5h6p5----------------------------------------|
Eb|-0-0------------------------------------------------|
Tap to rate this tab
# A B C D E F G H I J K L M N O P Q R S T U V W X Y Z