Song name
# A B C D E F G H I J K L M N O P Q R S T U V W X Y Z

Washya - Achillies tab

-------------------------------------------------------------------------------
                      Achilles - Washya 
-------------------------------------------------------------------------------
Tuning: Drop C (DAFCGC) 
Intro (Heavy Palm Muting)
D|-----------------------------|
A|-----------------------------|
F|-----------------------3b-3b-|
C|-----------------------5b-5b-|
G|-0h1p0h1h3p1p0h1p0h1p0-------|
C|-0h1p0h1h3p1p0h1p0h1p0-------| 
pm ..................... 

Verses
D|--------------------------------------------|
A|--------------------------------------------|
F|--------------------------------------------|
C|--------------------------------------------|
G|-00-00-00-00-00-0-2/1--00-00-00-00-00-0-6/5-|
C|-00-00-00-00-00-0-2/1--00-00-00-00-00-0-6/5-|
pm .. .. .. .. .. .      .. .. .. .. .. . 

Chorus
D|-------------------------------|
A|-------------------------------|
F|-------------------------------|
C|-----------------------9/8-9/8-|
G|-0-3-0-3-0-3h5-0-0-3-0-7/6-7/6-|
C|-0-3-0-3-0-3h5-0-0-3-0---------|
Tap to rate this tab
# A B C D E F G H I J K L M N O P Q R S T U V W X Y Z