Song name
# A B C D E F G H I J K L M N O P Q R S T U V W X Y Z

Washya - Undermined tab

-----------------------------------------------------------------------------
                      Undermined - Washya
-----------------------------------------------------------------------------
Tuning: D Tuning (DCGFAD)
Intro
D|-----------------------|
A|-----------------------|
F|-----------------------|
G|-----444----444----444-|
C|-----444----444----444-|
D|-222222222222222222222-|
pm ....   ....   .... 

Verses
D|--------------------------------------|
A|--------------------------------------|
F|-------------------------------4*-----|
G|-------4-----------4------------------|
C|-0-1-2---4-3-0-1-2---4-3-0-1-2----4/5-|
D|---------2-1---------2-1----------2/3-|
pm . . .       . . .       . . .  

Chorus
D|----------------------------------------------|
A|----------------------------------------------|
F|----------------------------------------------|
C|----------------------------7-5-7-8-12-10-13~-|
G|-332------------5---7-5-6-7-------------------|
D|-110/18b\-5-6-7---7---------------------------|
pm          . . . . . . . . . . . . ....... 

Chorus
D|------------------------------------------|
A|------------------------------------------|
F|--------------------------------------15~-|
C|------------------------8-7-8-9/11-13-----|
G|-443------------9-7-8-9-------------------|
D|-221/12b\-7-8-9---------------------------|
pm          . . . . . . . . . . . ......   

Guitar Solo
D|------------------------------------------------------------------14-16-17|
A|---------------------------------------------------------14-16-17---------|
F|-/11-9----9-----11-9----9----11-9----9----------11-13-14------------------|
C|-------11---11-------11---11------11---11-13-14---------------------------|
G|--------------------------------------------------------------------------|
D|--------------------------------------------------------------------------|
pm                                       .........................


D|-19191919p17p15h1919191919p17p15h20202020p17p15-20p17p15-----------|
A|---------------------------------------------------------20p17p15--|
F|-------------------------------------------------------------------|
C|-------------------------------------------------------------------|
G|-------------------------------------------------------------------|
D|-------------------------------------------------------------------|

D|-------------------------------------------------------------------------|
A|----------------------------------------------------------------18p16p15-|
F|-20p17p15h20p17p15----------15p13p12----------15p13p12-18p16p15----------|
C|-------------------15p13p12----------15p13p12----------------------------|
G|-------------------------------------------------------------------------|
D|-------------------------------------------------------------------------|

D|-------------------------------------------------------15h18p16p15h20~--|
A|-18p16p15h18p16p15-------------------18p16p15h18p16p15------------------|
F|-------------------18p16p15h18p16p15------------------------------------|
C|------------------------------------------------------------------------|
G|------------------------------------------------------------------------|
D|------------------------------------------------------------------------|
Tap to rate this tab
# A B C D E F G H I J K L M N O P Q R S T U V W X Y Z