Song name
# A B C D E F G H I J K L M N O P Q R S T U V W X Y Z

Washya - Hells Carnage tab

-----------------------------------------------------------------------------
                      Hell's Carnage - Washya
-----------------------------------------------------------------------------
Tuning: Standard (ebgDAE)
Intro
e|---------------------------------------------------------|
b|---------------------------------------------------------|
g|---------------------------------------------------------|
D|---------------------------------------------------------|
A|-3p2---3p2---3p2---3p2h3p2---2p1---2p1---2p1---2p1h2p1---|
E|-----2-----2-----2---------2-----1-----1-----1---------1-|

Verses part 1
e|----------------------------|
b|----------------------------|
g|----------------------------|
D|----------------------------|
A|-----2222-2-2-2-2222-2-2-2--|
E|-/x\-0000-0-0-0-0000-0-0-0--|x 18
pm     .... . . . .... . . .

Verses Part 2
e|----------------------------------|
b|----------------------------------|
g|----------------------------------|
D|----------------------------------|
A|-3333-3-3-3-3333-3-3-3-3333-3-3-3-|
E|-1111-1-1-1-1111-1-1-1-1111-1-1-1-|
pm .... . . . .... . . . .... . . . 

Chorus
e|------------------------------------|
b|------------------------------------|
g|------------------------------------|
D|------------------------------------|
A|-2222-2-3/4-2222-2-7/8-2222-2-3-2-3-|
E|-0000-0-1/2-0000-0-5/6-0000-0-1-0-1-|
pm .... .     .... .     .... .   .

Guitar Solo
e|------------------------------------------------------------6-5/10~--|
b|------------------------------------------------------5-6-8----------|
g|------------------5~------------------------------9-7----------------|
D|-2----2----2----2----/7-----------7-----------7-9--------------------|
A|---4b---4b---4b---------8-7-5-7-8---8-7-5-7-8------------------------|
E|---------------------------------------------------------------------|

e|-/10----------------10----------------10----------------15-15h17p15\14-|
b|-----13-12-10-12-13----13-12-10-12-13----13-12-10-12-13----------------|
g|-----------------------------------------------------------------------|
D|-----------------------------------------------------------------------|
A|-----------------------------------------------------------------------|
E|-----------------------------------------------------------------------|

e|-14h15p14/12h13p12/10h12p10-------------------------------------------9--|
b|----------------------------9-7-----------------------------------7-6----|
g|--------------------------------9---------7-----------7-----6-7-9--------|
D|----------------------------------8-7-8-9---9-8-7-8-9---6-5--------------|
A|-------------------------------------------------------------------------|
E|-------------------------------------------------------------------------|

e|-9t15p12p9t15p12p9/11t17p14p11t17p14p11/14t20p18p14t20p18p14/21~-|
b|-------------------------------------------------------------21~-|
g|-----------------------------------------------------------------|
D|-----------------------------------------------------------------|
A|-----------------------------------------------------------------|
E|-----------------------------------------------------------------|

Legend:
t = tap
p = pull off 
/ = Slide
pm = Palm Mute
/x\ = Slide from anywhere
Tap to rate this tab
# A B C D E F G H I J K L M N O P Q R S T U V W X Y Z