Song name
# A B C D E F G H I J K L M N O P Q R S T U V W X Y Z

Washya - Khle Brise Ber Den Bergen tab

-----------------------------------------------------------------------------
   Kühle Brise über den Bergen (Cool Breeze Over The Mountains) - Washya
----------------------------------------------------------------------------
Tuning: Drop D (ebgDAD)
Intro
e|-------------------------|
b|-------------------------|
g|-------------------------|
D|-------------------------|
A|-0000-1p0-00-0000-1p0-00-|
D|-0000-1p0-00-0000-1p0-00-|
pm ....     .. ....     .. 


Verses (strum)
e|-0-3-0-------------0-5-0-0-------------777-0-0---|
b|-0-3-0-------------0-5-0-0-------------777-0-0---|
g|-0-5-0-------------0h7-0-0-------------999-0-0---|
D|-2-5-3-----3-----5-5h7-1/3-----6-------999-5-2-0-|
A|-2-3-3-3-5---5-3---5-5-1/3-3-5---5-3-5-777-5-2-0-|
D|-2-3-3-------------5-5-1/3-------------777-5-2-0-|
pm       . . . . . .         . . . . . . 


Main Riff
e|-----------------------------------------------------------------------|
b|-----------------------------------------------------------------------|
g|-------------------------------------7-7---5-7-----7-------------------|
D|-----2-5p4-2-----3-6p5-3-----5-----7---7-5-----7-5-7---------3-5h6p5-7-|
A|---2-------2---3-------3---5-----5-----5-----------5---5---3---------7-|
D|-2---------2-3---------3-5-----5-------5-------------5---3-----------7-|
pm . .         . .         . .   . . .     .           . . . .          

Guitar Solo (very fast and quick)

e|-3-1-----------1---------5b-7b-7-----------7-----------7-10-12b--15~-|
b|-----3-1---1-3---3-1-----5b-7b---9-8-7-8-9---9-8-7-8-9------12b--15~-|
g|---------2-----------2h3---------------------------------------------|
D|---------------------------------------------------------------------|
A|---------------------------------------------------------------------|
D|---------------------------------------------------------------------|
Tap to rate this tab
# A B C D E F G H I J K L M N O P Q R S T U V W X Y Z