Song name
# A B C D E F G H I J K L M N O P Q R S T U V W X Y Z

Washya - Inside Man tab

-----------------------------------------------------------------------------
                             Inside Man - Washya
-----------------------------------------------------------------------------
Tuning: Standard (ebgDAE)
Intro/Main Riff/Chorus 
e|-------------------|
b|-------------------|
g|-------------------|
D|-----8-7-5---5---5-|
A|-5-5-------7---7---|
E|-------------------|

Verses 
   E,           A,             C,               Em,           F, G,
e|-----------------------------------------------------------------|
b|-11--------------------------11-1---------1p0--------------------|
g|-22-2---2---2-22-2-2-0-----2-00----------------------------------|
D|-22---2---2---22-------2-0---22---2---2-------2-2p0---------3--5-|
A|--------------22-------------33-----3---3-----2-----2-3p2p1-3--5-|
E|----------------------------------------------0-------------1--3-|

Solo
e|-----12p10h12-14-14-10/12-----------------------------14p12----12-12h14~-|
b|-----12p10h12-14-14-10/12-12-14-12----12-14-14bp12----------14-----------|
g|-----------------------------------14--------------14--------------------|
D|-------------------------------------------------------------------------|
A|-------------------------------------------------------------------------|
E|-0-----------------------------------------------------------------------|
pm .     
Tap to rate this tab
 
# A B C D E F G H I J K L M N O P Q R S T U V W X Y Z