Song name
# A B C D E F G H I J K L M N O P Q R S T U V W X Y Z

Washya - Quality Control tab

-----------------------------------------------------------------------------
                      Quality Control - Washya
-----------------------------------------------------------------------------
Tuning: Drop B (BF#BEG#C#)
Intro
B|----------------------------------------------------|
F#|---------------------------------------------------|
B|----------------------------------------------------|
E|----------------------------------------------------|
G#|-0000-111-0000-111-0000-111-00-1-00-1-3p2p0-3p2p00-|
C#|-0000-111-0000-111-0000-111-00-1-00-1-3p2p0-3p2p00-|
pm  .... ... .... ... .... ... .. . .. .  

Verses 
B|-----------------------------------------------------|
F#|----------------------------------------------------|
B|-----------------------------------------------------|
E|-----------------------------------------------------|
G#|-1-1-00-1-1--1-1-00-1-1--0-0-11-0-0-1-1-6-6-6-3-3-3-|
C#|-1-1-00-1-1--1-1-00-1-1--0-0-11-0-0-1-1-6-6-6-3-3-3-|
pm  . . .. . .  . . .. . .  . . .. . . . .   

Chorus
B|--------------------------------------------------------------------------|
F#|-------------------------------------------------------------------------|
B|--------------------------------------------------------------------------|
E|--5-5-5-7-7-7-----------------------------3-3-3-4-------------------------|
G#|-3-3-3-5-5-5-5-5-5-5-5-5-5-5-1-1-1-1-1-1-1-1-1-2-3-3-2-2-0-0-1-1-3-0-1-0-|
C#|-------------5-5-5-5-5-5-5-5-1-1-1-1-1-1---------3-3-2-2-0-0-1-1-3-0-1-0-|
pm              . . . . . . . . . . . . . .    

Guitar Solo (Play Fast)
B|-----------------------------------------------------------------------|
F#|----------------------------------------------------------------------|
B|---------------------------------------------7-9-10-7-9-12-10-9-7h9p7--|
E|---5-7-8-5-7-8-------------------6-8-9-6-8-9---------------------------|
G#|--------------------------5-7-8---------------------------------------|
C#|--------------5-7-8-5-7-8---------------------------------------------|

B|---------------------------------------------------------------------|
F#|-----------------13-15-13-12-13-12----------------------------------|
B|--5h7p5-4h5p4-/12-------------------12h13p12----------14-------------|
E|---------------------------------------------10h12p10----10-13-12----|
G#|-----------------------------------------------------------------10-|
C#|--------------------------------------------------------------------|

B|-----------------------------------------------------|
F#|----------------------------------------------------|
B|-----------------------------------------------------|
E|---------------------------7-------------------------|
G#|-8-10-7-8-7-5-7-5-4-5---5---5---5-------4-----------|
C#|----------------------4-------7---7-6-5---3-2-1-0-0-|
Tap to rate this tab
 
# A B C D E F G H I J K L M N O P Q R S T U V W X Y Z