Song name
# A B C D E F G H I J K L M N O P Q R S T U V W X Y Z

Washya - The Witch Doctor tab

-----------------------------------------------------------------------------
                      The Witch Doctor - Washya
-----------------------------------------------------------------------------
Tuning: Standard (ebgDAE)
Intro/Main Riff
e|-------------------|
b|-------------------|
g|-------------------|
D|-----1p0-----------|
A|-3-3-----3-1-3-1-3-|
E|-------------------|

Verses
e|---------------------------|
b|-------------5p3-2-2-2-3/5-|
g|-5---7-5-----5p3-2-2-2-3/5-|
D|-5-5-5-5-3-5---------------|
A|-3-5-5-3-3-5---------------|
E|---3-----1-3---------------|

Chorus                C, G#, F, G, A, Em,
e|-----------------------------------------------------------|
b|-1-1-1-1-----------3-3-3-3-----------2-2-2-2---------------|
g|-0-0-0-0-----------4-4-4-4-----------2-2-2-2---------------|
D|-2-2-2-2-----------5-5-5-5-----------2-2-2-2---------2-2-4-|
A|-3-3-3-3-3-3-3-3-3-5-5-5-5-5-5-5-5-5---------2-2-2h3-----2-|
E|---------1-1-1-1-1---------3-3-3-3-3---------0-0-----------|

Guitar Solo (play twice through)
e|-------------------------------------------------------------------|
b|----------------------------------10b-10-8-7-----------------------|
g|-9-9-7---7-9-9-9-7---------------------------9-8-7-----------------|
D|-------9-----------9-7---7-7-7h9~------------------9-8---10--------|
A|-----------------------9-------------------------------7----8-7-9--|
E|-------------------------------------------------------------------|
Tap to rate this tab
# A B C D E F G H I J K L M N O P Q R S T U V W X Y Z