Song name
# A B C D E F G H I J K L M N O P Q R S T U V W X Y Z

Washya - Rogue Renegade tab

-----------------------------------------------------------------------------
                      Rogue Renegade - Washya
-----------------------------------------------------------------------------
Tuning: Drop D (DADGBE)
Intro
e|-------------------------------------------------|
b|-------------------------------------------------|
g|-------------------------------------------------|
D|-----5---3---5-----3h5h7-----5---3---5-----3-5---|
A|-----------------------------------------------7-|
D|-0-0---0---0---0-0-------0-0---0---0---0-0-------|
pm . .   .   .   . .       . .   .   .   . .     

Verses
e|-------------------------------------------------|
b|-------------------------------------------------|
g|-------------------------------------------------|
D|-----7---5---7-----5-7-9-----7---5---7-----5-7---|
A|-0-0-5-0-3-0-5-0-0-3-5-7-0-0-5-0-3-0-5-0-0-3-5-7-|
D|-0-0---0---0---0-0-------0-0---0---0---0-0-----7-|
pm . .   .   .   . .       . .   .   .   . .     

Chorus
e|-------------------------------------------------------------|
b|-------------------------------------------------------------|
g|-------------------------------------------------------------|
D|-------------------------------------------------------------|
A|-00-3-0-5-0-6-0-5-00-3-5-6-00-5-0-6-0-3-00-6-5-3-00-3333-666-|
D|-00-3-0-5-0-6-0-5-00-3-5-6-00-5-0-6-0-3-00-6-5-3-00-3333-666-|
Tap to rate this tab
 
# A B C D E F G H I J K L M N O P Q R S T U V W X Y Z