Song name
# A B C D E F G H I J K L M N O P Q R S T U V W X Y Z

Washya - Fragmented Memories tab

-----------------------------------------------------------------------------
                    Fragmented Memories - Washya
-----------------------------------------------------------------------------
Tuning: Drop C (DAFCGC)
Intro (slow Song) But Still Heavy
D|-----------------------------------------|
A|-----------------------------------------|
F|-----------------------------------------|
C|-----7------5------9-----6-----3-----5-5-|
G|---5------3------7-----4-----1-----3---3-|
C|-5------3------7-----4-----1-----3-----3-|

Verses
D|-------------------------------------------------------------|
A|-------------------------------------------------------------|
F|----------------------6--------------------------------5-----|
C|-----5--------7-----6---6-----4-------10-------7-----5---5-5-|
G|---3---3----5---5-4---------2---2---8----8---5---5-3-------3-|
C|-3--------5---------------2-------8--------5---------------3-|

Chorus
D|-----------------------------------------------------------------------|
A|-----------------------------------------------------------------------|
F|-----------------------------------------------------------------------|
C|-5-7-7-------------3-----3-3-5-5-------------------------------5-----5-|
G|-3-5-5-3-5-5-1---1-----1---1-3-3-3-5/8-88888-5-6-6-5-6-6-3---3-----3---|
C|-------3-5-5-1-1-----1-----------3-5/8-88888-5-6-6-5-6-6-3-3-----3-----|
pm                                     . .....        

D|----------------------|
A|----------------------|
F|----------------------|
C|-5--------------------|
G|-3-5-5-3-5-1--1-11111-|
C|---5-5-3-5-1--1-11111-|
pm              . ..... 
Tap to rate this tab
 
# A B C D E F G H I J K L M N O P Q R S T U V W X Y Z