Song name
# A B C D E F G H I J K L M N O P Q R S T U V W X Y Z

Washya - Fruition tab

-----------------------------------------------------------------------------
                            Fruition - Washya
-----------------------------------------------------------------------------
Tuning: 1/2 step down (D#A#F#C#G#D#) 
Intro
D#|-----------------------------------|
A#|-----------------------------------|
F#|---------5-5-5-5/8-8-8-------------|
G#|-4-4-4-4-x-x-x-x-x-x-x-6-6666------|
C#|-2-2-2-2-3-3-3-3/6-6-6-8-8888------|
D#|-2-2-2-2---------------8-8888-/18\-|
pm  . . . .                 .... 

Verses
D#|----------------------------------------------|
A#|----------------------------------------------|
F#|-55-5-555-55-5-555-55--------------5--------3-|
C#|-55-5-555-55-5-555-55----4----3----5----7---3-|
G#|-33-3-333-33-3-333-33----4----3----3----7---1-|
D#|----------------------00-2-00-1-00---00-5-00--|
pm  ..    ..  . .  ..  . ..   ..   ..   ..   .. 

Chorus
D#|---------------------------------------------|
A#|---------------------------------------------|
F#|-121212-9/11-11-5-555555-33-5-----7---777777-|
C#|-121212-9/11-11-5-555555-33-5-3-4-7-7-777777-|
G#|-101010-7/9--9--3-333333-11-3-3-4-5-7-555555-|
D#|-101010---------3-333333------1-2---5-555555-|
pm                   ......              ...... 
Tap to rate this tab
# A B C D E F G H I J K L M N O P Q R S T U V W X Y Z