Song name
# A B C D E F G H I J K L M N O P Q R S T U V W X Y Z

Washya - Deliverance From Evil tab

-------------------------------------------------------------------------------
                           Deliverance From Evil - Washya 
-------------------------------------------------------------------------------
Tuning: Drop B (BF#BEG#C#)
Intro
B|------------------------------------------|
F#|-----------------------------------------|
B|------------------------------------------|
E|------8p7-----7p5-----5p3-----8p7p5-6p5p3-|
G#|-----------------------------------------|
C#|-000-----000-----000-----000-------------|
pm  ...     ...     ...     ...      

Verses
B|-----------------------------------------------------------|
F#|----------------------------------------------------------|
B|------------8p7p5-----6p5p3--------8p7p5-------------------|
E|------8p7p5------------------6p5p3-------7h8p5-3-5---------|
G#|--------------------------------------------------333-222-|
C#|-000-------------000------------------------------333-222-|
pm  ...             ... 

Chorus
B|-----------------------------------------------------------------------|
F#|----------------------------------------------------------------------|
B|-----------------------------------------------------------------------|
E|--3-3-3-3-x-3/4-4-4-4/7p6p4-6-6-6-6-5-5-5p4-------3-3-3-3/5-5-5-5p4p2--|
G#|-1-1-1-1-x-1/2-2-2-2-------4-4-4-4-3-3-----2p1p0-1-1-1-1/3-3-3--------|
C#|-1-1-1-1-x-1/2-2-2-2-------4-4-4-4-3-3-----------1-1-1-1/3-3-3--------|

B|----------------|
F#|---------------|
B|----------------|
E|----------------|
G#|-5p4p2-------0-|
C#|-------5p3p2p0-|
Tap to rate this tab
# A B C D E F G H I J K L M N O P Q R S T U V W X Y Z